0
SECTION
2
HEADER
9
$INSUNITS
70
4
9
$ACADVER
1
AC1014
9
$HANDSEED
5
FFFF
0
ENDSEC
0
SECTION
2
TABLES
0
TABLE
2
VPORT
5
8
100
AcDbSymbolTable
0
ENDTAB
0
TABLE
2
LTYPE
5
5
100
AcDbSymbolTable
0
LTYPE
5
14
100
AcDbSymbolTableRecord
100
AcDbLinetypeTableRecord
2
BYBLOCK
70
0
0
LTYPE
5
15
100
AcDbSymbolTableRecord
100
AcDbLinetypeTableRecord
2
BYLAYER
70
0
0
ENDTAB
0
TABLE
2
LAYER
5
2
100
AcDbSymbolTable
70
2
0
LAYER
5
50
100
AcDbSymbolTableRecord
100
AcDbLayerTableRecord
2
0
70
0
6
CONTINUOUS
0
ENDTAB
0
TABLE
2
STYLE
5
3
100
AcDbSymbolTable
70
1
0
STYLE
5
11
100
AcDbSymbolTableRecord
100
AcDbTextStyleTableRecord
2
STANDARD
70
0
0
ENDTAB
0
TABLE
2
VIEW
5
6
100
AcDbSymbolTable
70
0
0
ENDTAB
0
TABLE
2
UCS
5
7
100
AcDbSymbolTable
70
0
0
ENDTAB
0
TABLE
2
APPID
5
9
100
AcDbSymbolTable
70
2
0
APPID
5
12
100
AcDbSymbolTableRecord
100
AcDbRegAppTableRecord
2
ACAD
70
0
0
ENDTAB
0
TABLE
2
DIMSTYLE
5
A
100
AcDbSymbolTable
70
1
0
ENDTAB
0
TABLE
2
BLOCK_RECORD
5
1
100
AcDbSymbolTable
70
1
0
BLOCK_RECORD
5
1F
100
AcDbSymbolTableRecord
100
AcDbBlockTableRecord
2
*MODEL_SPACE
0
BLOCK_RECORD
5
1B
100
AcDbSymbolTableRecord
100
AcDbBlockTableRecord
2
*PAPER_SPACE
0
ENDTAB
0
ENDSEC
0
SECTION
2
BLOCKS
0
BLOCK
5
20
100
AcDbEntity
100
AcDbBlockBegin
2
*MODEL_SPACE
0
ENDBLK
5
21
100
AcDbEntity
100
AcDbBlockEnd
0
BLOCK
5
1C
100
AcDbEntity
100
AcDbBlockBegin
2
*PAPER_SPACE
0
ENDBLK
5
1D
100
AcDbEntity
100
AcDbBlockEnd
0
ENDSEC
0
SECTION
2
ENTITIES
0
LINE
5
100
100
AcDbEntity
8
0
100
AcDbLine
10
-260.57627300346689
20
-652.97451338769292
30
0
11
-260.57627300346689
21
-649.77430152315321
31
0
0
LINE
5
101
100
AcDbEntity
8
0
100
AcDbLine
10
-234.57627300346698
20
-652.9743016079658
30
0
11
-234.57627300346698
21
-649.77430152315321
31
0
0
LINE
5
102
100
AcDbEntity
8
0
100
AcDbLine
10
-78.576165578312938
20
-652.97455863348637
30
0
11
-78.576222876332324
21
-649.77430152315321
31
0
0
LINE
5
103
100
AcDbEntity
8
0
100
AcDbLine
10
-273.37641509122426
20
-503.97455970619689
30
0
11
-260.57621118333532
21
-503.97455970619689
31
0
0
LINE
5
104
100
AcDbEntity
8
0
100
AcDbLine
10
-221.3770142982749
20
-652.97455863348637
30
0
11
-221.3663301457477
21
-652.97455863348637
31
0
0
LINE
5
105
100
AcDbEntity
8
0
100
AcDbLine
10
-221.3762884837833
20
-503.97455970619689
30
0
11
-78.576273003467136
21
-503.97455970619689
31
0
0
LINE
5
106
100
AcDbEntity
8
0
100
AcDbLine
10
-260.57621118333532
20
-503.97455970619689
30
0
11
-260.57614048647787
21
-500.77455863348655
31
0
0
LINE
5
107
100
AcDbEntity
8
0
100
AcDbLine
10
-221.3663301457477
20
-652.97455863348637
30
0
11
-234.57627300346698
21
-652.9743016079658
31
0
0
LINE
5
108
100
AcDbEntity
8
0
100
AcDbLine
10
-247.37645335466343
20
-652.97455863348637
30
0
11
-260.57627300346689
21
-652.97451338769292
31
0
0
LINE
5
109
100
AcDbEntity
8
0
100
AcDbLine
10
-234.57627300346698
20
-649.77430152315321
30
0
11
-247.37635715755357
21
-649.77430152315321
31
0
0
LINE
5
110
100
AcDbEntity
8
0
100
AcDbLine
10
-273.37627300346702
20
-649.77430152315321
30
0
11
-273.37627300346702
21
-652.97349952140212
31
0
0
LINE
5
111
100
AcDbEntity
8
0
100
AcDbLine
10
-26.576427152506451
20
-649.77430152315321
30
0
11
-39.376323091782972
21
-649.77430152315321
31
0
0
LINE
5
112
100
AcDbEntity
8
0
100
AcDbLine
10
-39.37638034720279
20
-652.97455863348637
30
0
11
-52.574591381286794
21
-652.97455863348637
31
0
0
LINE
5
113
100
AcDbEntity
8
0
100
AcDbLine
10
-528.82627300346667
20
-500.7745597061969
30
0
11
-507.3763134951779
21
-500.77455863348655
31
0
0
LINE
5
114
100
AcDbEntity
8
0
100
AcDbLine
10
-494.57634622843676
20
-503.97455970619689
30
0
11
-494.57627300346678
21
-500.77466574735797
31
0
0
LINE
5
115
100
AcDbEntity
8
0
100
AcDbLine
10
-481.37627300346674
20
-500.77494464333438
30
0
11
-481.37593157656795
21
-503.97455970619689
31
0
0
LINE
5
116
100
AcDbEntity
8
0
100
AcDbLine
10
-5.1262730034672188
20
-652.97430152315314
30
0
11
-26.576273003467172
21
-652.97430152315314
31
0
0
LINE
5
117
100
AcDbEntity
8
0
100
AcDbLine
10
-26.576273003467172
20
-652.97430152315314
30
0
11
-26.576427152506451
21
-649.77430152315321
31
0
0
LINE
5
118
100
AcDbEntity
8
0
100
AcDbLine
10
-549.87627300346674
20
-503.97455970619689
30
0
11
-528.82627300346667
21
-503.97455970619689
31
0
0
LINE
5
119
100
AcDbEntity
8
0
100
AcDbLine
10
19.123707630953529
20
-609.27455863348632
30
0
11
19.123726996532749
21
-629.7244042992686
31
0
0
LINE
5
120
100
AcDbEntity
8
0
100
AcDbLine
10
-5.1262730034672188
20
-652.97430152315314
30
0
11
-5.1262730034672188
21
-649.77430152315321
31
0
0
LINE
5
121
100
AcDbEntity
8
0
100
AcDbLine
10
15.923649587835909
20
-649.77430152315321
30
0
11
-5.1262730034672188
21
-649.77430152315321
31
0
0
LINE
5
122
100
AcDbEntity
8
0
100
AcDbLine
10
-507.3763134951779
20
-500.77455863348655
30
0
11
-507.37629189947472
21
-503.97455970619689
31
0
0
LINE
5
123
100
AcDbEntity
8
0
100
AcDbLine
10
-481.37593157656795
20
-503.97455970619689
30
0
11
-468.57627300346667
21
-503.97455970619689
31
0
0
LINE
5
124
100
AcDbEntity
8
0
100
AcDbLine
10
-39.376323091782972
20
-649.77430152315321
30
0
11
-39.37638034720279
21
-652.97455863348637
31
0
0
LINE
5
125
100
AcDbEntity
8
0
100
AcDbLine
10
-528.82627300346667
20
-503.97455970619689
30
0
11
-528.82627300346667
21
-500.7745597061969
31
0
0
LINE
5
126
100
AcDbEntity
8
0
100
AcDbLine
10
-5.1262730034672188
20
-649.77430152315321
30
0
11
-5.1262730034672188
21
-652.97430152315314
31
0
0
LINE
5
127
100
AcDbEntity
8
0
100
AcDbLine
10
-52.574591381286794
20
-652.97455863348637
30
0
11
-52.575488318510111
21
-649.77430152315321
31
0
0
LINE
5
128
100
AcDbEntity
8
0
100
AcDbLine
10
-65.376273003467134
20
-649.77430152315321
30
0
11
-65.376273003467134
21
-652.97453692347869
31
0
0
LINE
5
129
100
AcDbEntity
8
0
100
AcDbLine
10
-52.575488318510111
20
-649.77430152315321
30
0
11
-65.376273003467134
21
-649.77430152315321
31
0
0
LINE
5
130
100
AcDbEntity
8
0
100
AcDbLine
10
-494.57627300346678
20
-500.77466574735797
30
0
11
-481.37627300346674
21
-500.77494464333438
31
0
0
LINE
5
131
100
AcDbEntity
8
0
100
AcDbLine
10
-507.37629189947472
20
-503.97455970619689
30
0
11
-494.57634622843676
21
-503.97455970619689
31
0
0
LINE
5
132
100
AcDbEntity
8
0
100
AcDbLine
10
15.923649587835909
20
-596.47455863348637
30
0
11
15.923649587835909
21
-609.27455375215311
31
0
0
LINE
5
133
100
AcDbEntity
8
0
100
AcDbLine
10
15.923649587835909
20
-609.27455375215311
30
0
11
19.123707630953529
21
-609.27455863348632
31
0
0
LINE
5
134
100
AcDbEntity
8
0
100
AcDbLine
10
-312.575961431868
20
-652.97455863348637
30
0
11
-312.57650031376943
21
-649.77430152315321
31
0
0
LINE
5
135
100
AcDbEntity
8
0
100
AcDbLine
10
15.923649587835909
20
-629.72531622148631
30
0
11
15.923649587835909
21
-649.77430152315321
31
0
0
LINE
5
136
100
AcDbEntity
8
0
100
AcDbLine
10
-553.07620447208751
20
-524.02455863348655
30
0
11
-549.87627300346674
21
-524.02450434248499
31
0
0
LINE
5
137
100
AcDbEntity
8
0
100
AcDbLine
10
15.923649587835909
20
-570.47466286547854
30
0
11
15.923649587835909
21
-583.27458343907699
31
0
0
LINE
5
138
100
AcDbEntity
8
0
100
AcDbLine
10
-549.87627300346674
20
-524.02450434248499
30
0
11
-549.8762730472946
21
-503.97455970619689
31
0
0
LINE
5
139
100
AcDbEntity
8
0
100
AcDbLine
10
-455.37629058674889
20
-649.77430152315333
30
0
11
-455.37631069615759
21
-652.97455863348637
31
0
0
LINE
5
140
100
AcDbEntity
8
0
100
AcDbLine
10
-553.07627300346667
20
-544.47417527857147
30
0
11
-553.07620447208751
21
-524.02455863348655
31
0
0
LINE
5
141
100
AcDbEntity
8
0
100
AcDbLine
10
-528.82627300346667
20
-500.7745597061969
30
0
11
-528.82627300346667
21
-503.97455970619689
31
0
0
LINE
5
142
100
AcDbEntity
8
0
100
AcDbLine
10
-325.37614696052577
20
-649.77430152315333
30
0
11
-325.37667090148028
21
-652.97455863348637
31
0
0
LINE
5
143
100
AcDbEntity
8
0
100
AcDbLine
10
-338.57627300346689
20
-652.97267923027005
30
0
11
-338.57627300346689
21
-649.77430152315333
31
0
0
LINE
5
144
100
AcDbEntity
8
0
100
AcDbLine
10
19.123726996532749
20
-629.7244042992686
30
0
11
15.923649587835909
21
-629.72531622148631
31
0
0
LINE
5
145
100
AcDbEntity
8
0
100
AcDbLine
10
-468.57627300346667
20
-652.97339671702184
30
0
11
-468.57627300346667
21
-649.77430152315333
31
0
0
LINE
5
146
100
AcDbEntity
8
0
100
AcDbLine
10
-455.37631069615759
20
-652.97455863348637
30
0
11
-468.57627300346667
21
-652.97339671702184
31
0
0
LINE
5
147
100
AcDbEntity
8
0
100
AcDbLine
10
19.123726996532749
20
-583.27461179032423
30
0
11
19.123720307445492
21
-596.47455863348637
31
0
0
LINE
5
148
100
AcDbEntity
8
0
100
AcDbLine
10
19.123720307445492
20
-596.47455863348637
30
0
11
15.923649587835909
21
-596.47455863348637
31
0
0
LINE
5
149
100
AcDbEntity
8
0
100
AcDbLine
10
-553.07611880978334
20
-570.47455863348648
30
0
11
-553.07596389062826
21
-557.27455863348655
31
0
0
LINE
5
150
100
AcDbEntity
8
0
100
AcDbLine
10
15.923649587835909
20
-583.27458343907699
30
0
11
19.123726996532749
21
-583.27461179032423
31
0
0
LINE
5
151
100
AcDbEntity
8
0
100
AcDbLine
10
-549.87627300346674
20
-570.47467448996622
30
0
11
-553.07611880978334
21
-570.47455863348648
31
0
0
LINE
5
152
100
AcDbEntity
8
0
100
AcDbLine
10
-549.87627300346674
20
-544.47437974022489
30
0
11
-553.07627300346667
21
-544.47417527857147
31
0
0
LINE
5
153
100
AcDbEntity
8
0
100
AcDbLine
10
-494.18050278005012
20
-483.82347435170732
30
0
11
-506.98056060269749
21
-483.82347435170732
31
0
0
LINE
5
154
100
AcDbEntity
8
0
100
AcDbLine
10
-549.48056060269721
20
-463.7736701604029
30
0
11
-552.68056060269726
21
-463.77360005975396
31
0
0
LINE
5
155
100
AcDbEntity
8
0
100
AcDbLine
10
-528.43056060269714
20
-483.82347435170732
30
0
11
-549.48056060269721
21
-483.82347435170732
31
0
0
LINE
5
156
100
AcDbEntity
8
0
100
AcDbLine
10
-528.43056060269714
20
-487.0234907343675
30
0
11
-528.43056060269714
21
-483.82347435170732
31
0
0
LINE
5
157
100
AcDbEntity
8
0
100
AcDbLine
10
-494.1804366833635
20
-487.02373146204047
30
0
11
-494.18050278005012
21
-483.82347435170732
31
0
0
LINE
5
158
100
AcDbEntity
8
0
100
AcDbLine
10
-549.48056060269721
20
-443.32372872549234
30
0
11
-549.48056060269721
21
-430.52497495142393
31
0
0
LINE
5
159
100
AcDbEntity
8
0
100
AcDbLine
10
-506.98056060269749
20
-487.02352165575712
30
0
11
-528.43056060269714
21
-487.0234907343675
31
0
0
LINE
5
160
100
AcDbEntity
8
0
100
AcDbLine
10
-549.48056060269721
20
-430.52497495142393
30
0
11
-552.68055095144757
21
-430.52373146204042
31
0
0
LINE
5
161
100
AcDbEntity
8
0
100
AcDbLine
10
-552.68056060269726
20
-417.3237964635108
30
0
11
-549.63269062518907
21
-417.32376344384073
31
0
0
LINE
5
162
100
AcDbEntity
8
0
100
AcDbLine
10
-506.98056060269749
20
-483.82347435170732
30
0
11
-506.98056060269749
21
-487.02352165575712
31
0
0
LINE
5
163
100
AcDbEntity
8
0
100
AcDbLine
10
-480.98050278853998
20
-483.82347435170732
30
0
11
-480.98043668336351
21
-487.02373146204047
31
0
0
LINE
5
164
100
AcDbEntity
8
0
100
AcDbLine
10
-552.68056060269726
20
-463.77360005975396
30
0
11
-552.68054554503237
21
-443.32373146204043
31
0
0
LINE
5
165
100
AcDbEntity
8
0
100
AcDbLine
10
-552.68055095144757
20
-430.52373146204042
30
0
11
-552.68056060269726
21
-417.3237964635108
31
0
0
LINE
5
166
100
AcDbEntity
8
0
100
AcDbLine
10
-468.1805606026972
20
-483.82347435170732
30
0
11
-480.98050278853998
21
-483.82347435170732
31
0
0
LINE
5
167
100
AcDbEntity
8
0
100
AcDbLine
10
-480.98043668336351
20
-487.02373146204047
30
0
11
-494.1804366833635
21
-487.02373146204047
31
0
0
LINE
5
168
100
AcDbEntity
8
0
100
AcDbLine
10
-552.68054554503237
20
-443.32373146204043
30
0
11
-549.48056060269721
21
-443.32372872549234
31
0
0
LINE
5
169
100
AcDbEntity
8
0
100
AcDbLine
10
-549.48056060269721
20
-483.82347435170732
30
0
11
-549.48056060269721
21
-463.7736701604029
31
0
0
LINE
5
170
100
AcDbEntity
8
0
100
AcDbLine
10
-549.63269062518907
20
-417.32376344384073
30
0
11
-549.62747671160025
21
-404.52384199914422
31
0
0
LINE
5
171
100
AcDbEntity
8
0
100
AcDbLine
10
-552.68056060269726
20
-463.77360005975396
30
0
11
-549.48056060269721
21
-463.77360005975396
31
0
0
LINE
5
172
100
AcDbEntity
8
0
100
AcDbLine
10
-338.1805606026976
20
-334.82456877050828
30
0
11
-324.98056060269761
21
-334.82373252926863
31
0
0
LINE
5
173
100
AcDbEntity
8
0
100
AcDbLine
10
-52.180560602698016
20
-334.82413813173167
30
0
11
-38.980560602697942
21
-334.82382808813469
31
0
0
LINE
5
174
100
AcDbEntity
8
0
100
AcDbLine
10
-26.180531663165695
20
-334.82373146204054
30
0
11
-4.7305606026979774
21
-334.82373172750323
31
0
0
LINE
5
175
100
AcDbEntity
8
0
100
AcDbLine
10
-38.980560602697942
20
-334.82382808813469
30
0
11
-38.980496561225941
21
-338.02373253475105
31
0
0
LINE
5
176
100
AcDbEntity
8
0
100
AcDbLine
10
-38.980496561225941
20
-338.02373253475105
30
0
11
-26.180547097657012
21
-338.02373253475105
31
0
0
LINE
5
177
100
AcDbEntity
8
0
100
AcDbLine
10
-4.7305606026979774
20
-334.82373172750323
30
0
11
-4.7305606026979783
21
-338.02373253475105
31
0
0
LINE
5
178
100
AcDbEntity
8
0
100
AcDbLine
10
-338.1805606026976
20
-483.82347435170732
30
0
11
-454.98057818597954
21
-483.82347435170732
31
0
0
LINE
5
179
100
AcDbEntity
8
0
100
AcDbLine
10
-324.97946751886013
20
-338.02373253475105
30
0
11
-312.18057554463337
21
-338.02373253475105
31
0
0
LINE
5
180
100
AcDbEntity
8
0
100
AcDbLine
10
-552.68025148985885
20
-391.3237314620406
30
0
11
-549.48056060269721
21
-391.32373146204077
31
0
0
LINE
5
181
100
AcDbEntity
8
0
100
AcDbLine
10
-286.18055372359811
20
-483.82347435170732
30
0
11
-298.98103189406339
21
-483.82347435170732
31
0
0
LINE
5
182
100
AcDbEntity
8
0
100
AcDbLine
10
-468.1805606026972
20
-338.02373253475105
30
0
11
-468.18056060269726
21
-334.82411757576534
31
0
0
LINE
5
183
100
AcDbEntity
8
0
100
AcDbLine
10
16.319361988605149
20
-378.52353461385866
30
0
11
16.319361988605149
21
-391.32393915356823
31
0
0
LINE
5
184
100
AcDbEntity
8
0
100
AcDbLine
10
16.319361988605149
20
-391.32393915356823
30
0
11
19.519439397301991
21
-391.32417655083776
31
0
0
LINE
5
185
100
AcDbEntity
8
0
100
AcDbLine
10
19.519439397301991
20
-391.32417655083776
30
0
11
19.519297836832834
21
-404.52373146204059
31
0
0
LINE
5
186
100
AcDbEntity
8
0
100
AcDbLine
10
19.51936198860508
20
-358.07373146204071
30
0
11
19.519439397301991
21
-378.52330961830654
31
0
0
LINE
5
187
100
AcDbEntity
8
0
100
AcDbLine
10
19.519297836832834
20
-404.52373146204059
30
0
11
16.479294948346698
21
-404.52383048451213
31
0
0
LINE
5
188
100
AcDbEntity
8
0
100
AcDbLine
10
-298.9800946462077
20
-338.02373253475105
30
0
11
-286.18045196587212
21
-338.02373253475105
31
0
0
LINE
5
189
100
AcDbEntity
8
0
100
AcDbLine
10
-64.980560602697949
20
-338.02373253475105
30
0
11
-52.180560602698016
21
-338.02373253475105
31
0
0
LINE
5
190
100
AcDbEntity
8
0
100
AcDbLine
10
-26.180547097657012
20
-338.02373253475105
30
0
11
-26.180531663165695
21
-334.82373146204054
31
0
0
LINE
5
191
100
AcDbEntity
8
0
100
AcDbLine
10
-324.98056060269761
20
-334.82373252926863
30
0
11
-324.97946751886013
21
-338.02373253475105
31
0
0
LINE
5
192
100
AcDbEntity
8
0
100
AcDbLine
10
19.51936198860508
20
-358.07373146204071
30
0
11
16.319361988605149
21
-358.07373146204071
31
0
0
LINE
5
193
100
AcDbEntity
8
0
100
AcDbLine
10
-4.7305606026979783
20
-338.02373253475105
30
0
11
16.319361988605149
21
-338.02373253475105
31
0
0
LINE
5
194
100
AcDbEntity
8
0
100
AcDbLine
10
19.519439397301991
20
-378.52330961830654
30
0
11
16.319361988605149
21
-378.52353461385866
31
0
0
LINE
5
195
100
AcDbEntity
8
0
100
AcDbLine
10
-312.18078791300013
20
-483.82347435170732
30
0
11
-324.98043455975647
21
-483.82347435170732
31
0
0
LINE
5
196
100
AcDbEntity
8
0
100
AcDbLine
10
-549.48056060269721
20
-391.32373146204077
30
0
11
-549.48056060269721
21
-378.52355256877888
31
0
0
LINE
5
197
100
AcDbEntity
8
0
100
AcDbLine
10
16.319361988605149
20
-358.07366726524435
30
0
11
19.51936198860508
21
-358.07373146204071
31
0
0
LINE
5
198
100
AcDbEntity
8
0
100
AcDbLine
10
-468.18056060269726
20
-334.82411757576534
30
0
11
-454.98056060269744
21
-334.82383852112378
31
0
0
LINE
5
199
100
AcDbEntity
8
0
100
AcDbLine
10
-298.98169865551228
20
-487.02373146204047
30
0
11
-312.18024903109881
21
-487.02373146204047
31
0
0
LINE
5
200
100
AcDbEntity
8
0
100
AcDbLine
10
-298.98103189406339
20
-483.82347435170732
30
0
11
-298.98169865551228
21
-487.02373146204047
31
0
0
LINE
5
201
100
AcDbEntity
8
0
100
AcDbLine
10
-312.1805606026976
20
-334.82519139633871
30
0
11
-298.98071146820251
21
-334.82373146204066
31
0
0
LINE
5
202
100
AcDbEntity
8
0
100
AcDbLine
10
-64.980560602697878
20
-334.82409745010909
30
0
11
-64.980560602697949
21
-338.02373253475105
31
0
0
LINE
5
203
100
AcDbEntity
8
0
100
AcDbLine
10
-312.18057554463337
20
-338.02373253475105
30
0
11
-312.1805606026976
21
-334.82519139633871
31
0
0
LINE
5
204
100
AcDbEntity
8
0
100
AcDbLine
10
-298.98071146820251
20
-334.82373146204066
30
0
11
-298.9800946462077
21
-338.02373253475105
31
0
0
LINE
5
205
100
AcDbEntity
8
0
100
AcDbLine
10
-324.98095850071104
20
-487.02373146204047
30
0
11
-338.1805606026976
21
-487.02185205882392
31
0
0
LINE
5
206
100
AcDbEntity
8
0
100
AcDbLine
10
-454.98056060269744
20
-338.02373253475105
30
0
11
-338.1805606026976
21
-338.02373253475105
31
0
0
LINE
5
207
100
AcDbEntity
8
0
100
AcDbLine
10
-454.98056060269744
20
-334.82383852112378
30
0
11
-454.98056060269744
21
-338.02373253475105
31
0
0
LINE
5
208
100
AcDbEntity
8
0
100
AcDbLine
10
16.319361988605149
20
-338.02373253475105
30
0
11
16.319361988605149
21
-358.07366726524435
31
0
0
LINE
5
209
100
AcDbEntity
8
0
100
AcDbLine
10
-338.1805606026976
20
-338.02373253475105
30
0
11
-338.1805606026976
21
-334.82456877050828
31
0
0
LINE
5
210
100
AcDbEntity
8
0
100
AcDbLine
10
-52.180560602698016
20
-338.02373253475105
30
0
11
-52.180560602698016
21
-334.82413813173167
31
0
0
LINE
5
211
100
AcDbEntity
8
0
100
AcDbLine
10
-234.1805606026978
20
-338.02373253475105
30
0
11
-234.1805606026978
21
-334.82373387544249
31
0
0
LINE
5
212
100
AcDbEntity
8
0
100
AcDbLine
10
-78.180560602697881
20
-338.02373253475105
30
0
11
-78.180560602697881
21
-334.82384954545773
31
0
0
LINE
5
213
100
AcDbEntity
8
0
100
AcDbLine
10
-272.98056060269772
20
-487.02267234995611
30
0
11
-286.18054585653232
21
-487.02373146204047
31
0
0
LINE
5
214
100
AcDbEntity
8
0
100
AcDbLine
10
-286.18054585653232
20
-487.02373146204047
30
0
11
-286.18055372359811
21
-483.82347435170732
31
0
0
LINE
5
215
100
AcDbEntity
8
0
100
AcDbLine
10
-220.9759210287034
20
-483.82347435170732
30
0
11
-220.97061774497854
21
-487.02373146204047
31
0
0
LINE
5
216
100
AcDbEntity
8
0
100
AcDbLine
10
-78.180560602697881
20
-334.82384954545773
30
0
11
-64.980560602697878
21
-334.82409745010909
31
0
0
LINE
5
217
100
AcDbEntity
8
0
100
AcDbLine
10
-246.98054964271395
20
-338.02373253475105
30
0
11
-234.1805606026978
21
-338.02373253475105
31
0
0
LINE
5
218
100
AcDbEntity
8
0
100
AcDbLine
10
-78.180510475563082
20
-483.82347435170732
30
0
11
-220.9759210287034
21
-483.82347435170732
31
0
0
LINE
5
219
100
AcDbEntity
8
0
100
AcDbLine
10
-246.98064475678427
20
-483.82347435170732
30
0
11
-246.9807409538941
21
-487.02373146204047
31
0
0
LINE
5
220
100
AcDbEntity
8
0
100
AcDbLine
10
-286.17991992258249
20
-334.82373146204066
30
0
11
-272.98124085551353
21
-334.82373146204066
31
0
0
LINE
5
221
100
AcDbEntity
8
0
100
AcDbLine
10
-260.18056060269771
20
-483.82347435170732
30
0
11
-272.98056060269772
21
-483.82347435170732
31
0
0
LINE
5
222
100
AcDbEntity
8
0
100
AcDbLine
10
-246.98056060269772
20
-334.82515212287694
30
0
11
-246.98054964271395
21
-338.02373253475105
31
0
0
LINE
5
223
100
AcDbEntity
8
0
100
AcDbLine
10
-286.18045196587212
20
-338.02373253475105
30
0
11
-286.17991992258249
21
-334.82373146204066
31
0
0
LINE
5
224
100
AcDbEntity
8
0
100
AcDbLine
10
-234.1805606026978
20
-334.82373387544249
30
0
11
-220.98059377481673
21
-334.82373146204066
31
0
0
LINE
5
225
100
AcDbEntity
8
0
100
AcDbLine
10
-220.98059377481673
20
-334.82373146204066
30
0
11
-220.98057608301394
21
-338.02373253475105
31
0
0
LINE
5
226
100
AcDbEntity
8
0
100
AcDbLine
10
-64.980560602697949
20
-487.02370975203286
30
0
11
-78.18045317754374
21
-487.02373146204047
31
0
0
LINE
5
227
100
AcDbEntity
8
0
100
AcDbLine
10
-272.98124085551353
20
-334.82373146204066
30
0
11
-272.98070269045479
21
-338.02373253475105
31
0
0
LINE
5
228
100
AcDbEntity
8
0
100
AcDbLine
10
-260.18042808570874
20
-334.82373146204066
30
0
11
-246.98056060269772
21
-334.82515212287694
31
0
0
LINE
5
229
100
AcDbEntity
8
0
100
AcDbLine
10
-260.18056060269771
20
-487.02368621624686
30
0
11
-260.18056060269771
21
-483.82347435170732
31
0
0
LINE
5
230
100
AcDbEntity
8
0
100
AcDbLine
10
-234.18056060269771
20
-487.0234744365199
30
0
11
-234.1805606026978
21
-483.82347435170732
31
0
0
LINE
5
231
100
AcDbEntity
8
0
100
AcDbLine
10
-78.18045317754374
20
-487.02373146204047
30
0
11
-78.180510475563082
21
-483.82347435170732
31
0
0
LINE
5
232
100
AcDbEntity
8
0
100
AcDbLine
10
-272.98070269045479
20
-338.02373253475105
30
0
11
-260.18049878256602
21
-338.02373253475105
31
0
0
LINE
5
233
100
AcDbEntity
8
0
100
AcDbLine
10
-220.98130189750555
20
-487.02373146204047
30
0
11
-220.97061774497854
21
-487.02373146204047
31
0
0
LINE
5
234
100
AcDbEntity
8
0
100
AcDbLine
10
-220.98057608301394
20
-338.02373253475105
30
0
11
-78.180560602697881
21
-338.02373253475105
31
0
0
LINE
5
235
100
AcDbEntity
8
0
100
AcDbLine
10
-260.18049878256602
20
-338.02373253475105
30
0
11
-260.18042808570874
21
-334.82373146204066
31
0
0
LINE
5
236
100
AcDbEntity
8
0
100
AcDbLine
10
-220.97061774497854
20
-487.02373146204047
30
0
11
-234.18056060269771
21
-487.0234744365199
31
0
0
LINE
5
237
100
AcDbEntity
8
0
100
AcDbLine
10
-246.9807409538941
20
-487.02373146204047
30
0
11
-260.18056060269771
21
-487.02368621624686
31
0
0
LINE
5
238
100
AcDbEntity
8
0
100
AcDbLine
10
-234.1805606026978
20
-483.82347435170732
30
0
11
-246.98064475678427
21
-483.82347435170732
31
0
0
LINE
5
239
100
AcDbEntity
8
0
100
AcDbLine
10
-272.98056060269772
20
-483.82347435170732
30
0
11
-272.98056060269772
21
-487.02267234995611
31
0
0
LINE
5
240
100
AcDbEntity
8
0
100
AcDbLine
10
-26.180714751737209
20
-483.82347435170732
30
0
11
-38.98061069101373
21
-483.82347435170732
31
0
0
LINE
5
241
100
AcDbEntity
8
0
100
AcDbLine
10
-38.980667946433549
20
-487.02373146204047
30
0
11
-52.178878980517702
21
-487.02373146204047
31
0
0
LINE
5
242
100
AcDbEntity
8
0
100
AcDbLine
10
-528.43056060269714
20
-334.823732534751
30
0
11
-506.98060109440718
21
-334.82373165575717
31
0
0
LINE
5
243
100
AcDbEntity
8
0
100
AcDbLine
10
-494.18063382766724
20
-338.02373253475105
30
0
11
-494.18056060269726
21
-334.82383857591208
31
0
0
LINE
5
244
100
AcDbEntity
8
0
100
AcDbLine
10
-480.98056060269727
20
-334.82411747188843
30
0
11
-480.98021917579848
21
-338.02373253475105
31
0
0
LINE
5
245
100
AcDbEntity
8
0
100
AcDbLine
10
-4.7305606026979783
20
-487.02347435170731
30
0
11
-26.180560602697931
21
-487.02347435170731
31
0
0
LINE
5
246
100
AcDbEntity
8
0
100
AcDbLine
10
-26.180560602697931
20
-487.02347435170731
30
0
11
-26.180714751737209
21
-483.82347435170732
31
0
0
LINE
5
247
100
AcDbEntity
8
0
100
AcDbLine
10
-549.48056060269721
20
-338.02373253475105
30
0
11
-528.43056060269714
21
-338.02373253475105
31
0
0
LINE
5
248
100
AcDbEntity
8
0
100
AcDbLine
10
19.51942003172277
20
-443.32373146204043
30
0
11
19.519439397301991
21
-463.77357712782276
31
0
0
LINE
5
249
100
AcDbEntity
8
0
100
AcDbLine
10
-4.7305606026979783
20
-487.02347435170731
30
0
11
-4.7305606026979783
21
-483.82347435170732
31
0
0
LINE
5
250
100
AcDbEntity
8
0
100
AcDbLine
10
16.319361988605149
20
-483.82347435170732
30
0
11
-4.7305606026979783
21
-483.82347435170732
31
0
0
LINE
5
251
100
AcDbEntity
8
0
100
AcDbLine
10
-506.98060109440718
20
-334.82373165575717
30
0
11
-506.9805794987052
21
-338.02373253475105
31
0
0
LINE
5
252
100
AcDbEntity
8
0
100
AcDbLine
10
-480.98021917579848
20
-338.02373253475105
30
0
11
-468.1805606026972
21
-338.02373253475105
31
0
0
LINE
5
253
100
AcDbEntity
8
0
100
AcDbLine
10
-38.98061069101373
20
-483.82347435170732
30
0
11
-38.980667946433549
21
-487.02373146204047
31
0
0
LINE
5
254
100
AcDbEntity
8
0
100
AcDbLine
10
-528.43056060269714
20
-338.02373253475105
30
0
11
-528.43056060269714
21
-334.823732534751
31
0
0
LINE
5
255
100
AcDbEntity
8
0
100
AcDbLine
10
-4.7305606026979783
20
-483.82347435170732
30
0
11
-4.7305606026979783
21
-487.02347435170731
31
0
0
LINE
5
256
100
AcDbEntity
8
0
100
AcDbLine
10
-52.178878980517702
20
-487.02373146204047
30
0
11
-52.179775917740862
21
-483.82347435170732
31
0
0
LINE
5
257
100
AcDbEntity
8
0
100
AcDbLine
10
-64.980560602697878
20
-483.82347435170732
30
0
11
-64.980560602697949
21
-487.02370975203286
31
0
0
LINE
5
258
100
AcDbEntity
8
0
100
AcDbLine
10
-52.179775917740862
20
-483.82347435170732
30
0
11
-64.980560602697878
21
-483.82347435170732
31
0
0
LINE
5
259
100
AcDbEntity
8
0
100
AcDbLine
10
-494.18056060269726
20
-334.82383857591208
30
0
11
-480.98056060269727
21
-334.82411747188843
31
0
0
LINE
5
260
100
AcDbEntity
8
0
100
AcDbLine
10
-506.9805794987052
20
-338.02373253475105
30
0
11
-494.18063382766724
21
-338.02373253475105
31
0
0
LINE
5
261
100
AcDbEntity
8
0
100
AcDbLine
10
16.319361988605149
20
-430.52373146204042
30
0
11
16.319361988605149
21
-443.3237265807071
31
0
0
LINE
5
262
100
AcDbEntity
8
0
100
AcDbLine
10
16.319361988605149
20
-443.3237265807071
30
0
11
19.51942003172277
21
-443.32373146204043
31
0
0
LINE
5
263
100
AcDbEntity
8
0
100
AcDbLine
10
-312.18024903109881
20
-487.02373146204047
30
0
11
-312.18078791300013
21
-483.82347435170732
31
0
0
LINE
5
264
100
AcDbEntity
8
0
100
AcDbLine
10
16.319361988605149
20
-463.77448905004024
30
0
11
16.319361988605149
21
-483.82347435170732
31
0
0
LINE
5
265
100
AcDbEntity
8
0
100
AcDbLine
10
-552.68049207131799
20
-358.07373146204071
30
0
11
-549.48056060269721
21
-358.07367717103892
31
0
0
LINE
5
266
100
AcDbEntity
8
0
100
AcDbLine
10
16.479294948346698
20
-404.52383048451213
30
0
11
16.480281518455079
21
-417.32375769330582
31
0
0
LINE
5
267
100
AcDbEntity
8
0
100
AcDbLine
10
-549.48056060269721
20
-358.07367717103892
30
0
11
-549.48056064652508
21
-338.02373253475105
31
0
0
LINE
5
268
100
AcDbEntity
8
0
100
AcDbLine
10
-454.98057818597954
20
-483.82347435170732
30
0
11
-454.98059829538829
21
-487.02373146204047
31
0
0
LINE
5
269
100
AcDbEntity
8
0
100
AcDbLine
10
-552.68056060269726
20
-378.52334810712534
30
0
11
-552.68049207131799
21
-358.07373146204071
31
0
0
LINE
5
270
100
AcDbEntity
8
0
100
AcDbLine
10
-528.43056060269714
20
-334.823732534751
30
0
11
-528.43056060269714
21
-338.02373253475105
31
0
0
LINE
5
271
100
AcDbEntity
8
0
100
AcDbLine
10
-324.98043455975647
20
-483.82347435170732
30
0
11
-324.98095850071104
21
-487.02373146204047
31
0
0
LINE
5
272
100
AcDbEntity
8
0
100
AcDbLine
10
-338.1805606026976
20
-487.02185205882392
30
0
11
-338.1805606026976
21
-483.82347435170732
31
0
0
LINE
5
273
100
AcDbEntity
8
0
100
AcDbLine
10
19.519439397301991
20
-463.77357712782276
30
0
11
16.319361988605149
21
-463.77448905004024
31
0
0
LINE
5
274
100
AcDbEntity
8
0
100
AcDbLine
10
-468.18056060269748
20
-487.02256954557612
30
0
11
-468.1805606026972
21
-483.82347435170732
31
0
0
LINE
5
275
100
AcDbEntity
8
0
100
AcDbLine
10
-454.98059829538829
20
-487.02373146204047
30
0
11
-468.18056060269748
21
-487.02256954557612
31
0
0
LINE
5
276
100
AcDbEntity
8
0
100
AcDbLine
10
19.519439397301991
20
-417.32378461887822
30
0
11
19.51943270821473
21
-430.52373146204042
31
0
0
LINE
5
277
100
AcDbEntity
8
0
100
AcDbLine
10
19.51943270821473
20
-430.52373146204042
30
0
11
16.319361988605149
21
-430.52373146204042
31
0
0
LINE
5
278
100
AcDbEntity
8
0
100
AcDbLine
10
-552.68040640901381
20
-404.52373146204059
30
0
11
-552.68025148985885
21
-391.3237314620406
31
0
0
LINE
5
279
100
AcDbEntity
8
0
100
AcDbLine
10
16.480281518455079
20
-417.32375769330582
30
0
11
19.519439397301991
21
-417.32378461887822
31
0
0
LINE
5
280
100
AcDbEntity
8
0
100
AcDbLine
10
-549.62747671160025
20
-404.52384199914422
30
0
11
-552.68040640901381
21
-404.52373146204059
31
0
0
LINE
5
281
100
AcDbEntity
8
0
100
AcDbLine
10
-549.48056060269721
20
-378.52355256877888
30
0
11
-552.68056060269726
21
-378.52334810712534
31
0
0
SPLINE
5
282
100
AcDbEntity
8
0
100
AcDbSpline
70
1064
71
3
72
20
73
16
74
0
42
0.000000001
43
0.0000000001
44
0.0000000001
40
0
40
0
40
0
40
0
40
0.20000000000000001
40
0.20000000000000001
40
0.20000000000000001
40
0.20000001000000001
40
0.40000000000000002
40
0.40000000000000002
40
0.40000000000000002
40
0.40000001000000018
40
0.59999999999999998
40
0.59999999999999998
40
0.59999999999999998
40
0.60000001000000025
40
1
40
1
40
1
40
1
10
313.12758478558953
20
-152.3500601201938
30
0
10
308.98538478558953
20
-152.3500601201938
30
0
10
305.62758478558953
20
-150.3353601201938
30
0
10
305.62758478558953
20
-147.85006012019383
30
0
10
305.62758478558953
20
-147.85006012019383
30
0
10
305.62758478558953
20
-145.36476012019381
30
0
10
308.98538478558953
20
-143.3500601201938
30
0
10
313.12758478558953
20
-143.3500601201938
30
0
10
313.12758478558953
20
-143.3500601201938
30
0
10
317.26978478558954
20
-143.3500601201938
30
0
10
320.62758478558948
20
-145.36476012019381
30
0
10
320.62758478558948
20
-147.85006012019383
30
0
10
320.62758478558948
20
-147.85006012019383
30
0
10
320.62758478558948
20
-150.3353601201938
30
0
10
317.26978478558954
20
-152.3500601201938
30
0
10
313.12758478558953
20
-152.3500601201938
30
0
0
LWPOLYLINE
5
283
100
AcDbEntity
8
0
100
AcDbPolyline
90
4
70
1
43
0.0
10
306.52791386940601
20
101.9499525280624
10
306.52814894552432
20
98.7499091399105
10
293.72779498250247
20
98.749909139910471
10
293.72780386017052
20
101.9499525280624
0
LINE
5
284
100
AcDbEntity
8
0
100
AcDbLine
10
240.22782686819201
20
-142.94995916229419
30
0
11
240.22782686819201
21
-129.25006012019401
31
0
0
LWPOLYLINE
5
285
100
AcDbEntity
8
0
100
AcDbPolyline
90
4
70
1
43
0.0
10
348.62787086857179
20
107.49990837211401
10
345.62787086857168
20
107.49990837211401
10
345.62787086857168
20
137.49990837211402
10
348.62787086857179
20
137.49990837211402
0
LINE
5
286
100
AcDbEntity
8
0
100
AcDbLine
10
237.02768452054787
20
-129.25006012019392
30
0
11
237.02767272659548
21
-115.15006012019391
31
0
0
LINE
5
287
100
AcDbEntity
8
0
100
AcDbLine
10
240.22782686819201
20
-170.95004742859379
30
0
11
240.22782686819201
21
-157.0500601201939
31
0
0
LWPOLYLINE
5
288
100
AcDbEntity
8
0
100
AcDbPolyline
90
4
70
1
43
0.0
10
280.6278708685719
20
107.49990837211401
10
280.6278708685719
20
137.49990837211402
10
283.6278708685719
20
137.49990837211402
10
283.6278708685719
20
107.49990837211401
0
LINE
5
289
100
AcDbEntity
8
0
100
AcDbLine
10
240.22782686819201
20
-115.15006012019391
30
0
11
240.22782686819201
21
-101.2500601224481
31
0
0
LINE
5
290
100
AcDbEntity
8
0
100
AcDbLine
10
280.52759570382926
20
-167.7500167320417
30
0
11
260.47764593444231
21
-167.7500167320417
31
0
0
LWPOLYLINE
5
291
100
AcDbEntity
8
0
100
AcDbPolyline
90
4
70
1
43
0.0
10
319.72734819620871
20
98.7499091399105
10
319.72776508522946
20
101.9499525280624
10
332.52780985970662
20
101.9499525280624
10
332.52781030975711
20
98.7499091399105
0
LINE
5
292
100
AcDbEntity
8
0
100
AcDbLine
10
240.22782686819201
20
-157.0500601201939
30
0
11
237.02782686819208
21
-157.0500601201939
31
0
0
LINE
5
293
100
AcDbEntity
8
0
100
AcDbLine
10
280.52759570382926
20
-167.7500167320417
30
0
11
260.47764593444231
21
-167.7500167320417
31
0
0
LINE
5
294
100
AcDbEntity
8
0
100
AcDbLine
10
237.02764593444238
20
-142.95007020202061
30
0
11
240.22782686819201
21
-142.94995916229419
31
0
0
LINE
5
295
100
AcDbEntity
8
0
100
AcDbLine
10
240.22782686819201
20
-129.25006012019401
30
0
11
237.02768452054787
21
-129.25006012019392
31
0
0
LINE
5
296
100
AcDbEntity
8
0
100
AcDbLine
10
237.02782686819208
20
-157.0500601201939
30
0
11
237.02764593444238
21
-142.95007020202061
31
0
0
LINE
5
297
100
AcDbEntity
8
0
100
AcDbLine
10
240.22782686819201
20
-129.25006012019401
30
0
11
237.02768452054787
21
-129.25006012019392
31
0
0
LINE
5
298
100
AcDbEntity
8
0
100
AcDbLine
10
386.02762878597048
20
-157.05006012019382
30
0
11
386.02762878597048
21
-170.95006012019368
31
0
0
LINE
5
299
100
AcDbEntity
8
0
100
AcDbLine
10
306.52775008412925
20
-167.75001673204179
30
0
11
293.72764007489337
21
-167.7500167320417
31
0
0
LINE
5
300
100
AcDbEntity
8
0
100
AcDbLine
10
260.47764593444231
20
-170.95001673204169
30
0
11
240.22782686819201
21
-170.95004742859379
31
0
0
LINE
5
301
100
AcDbEntity
8
0
100
AcDbLine
10
386.02762878597048
20
-170.95006012019368
30
0
11
365.77764593444186
21
-170.95006012019368
31
0
0
LINE
5
302
100
AcDbEntity
8
0
100
AcDbLine
10
345.72785995033229
20
193.04982082801337
30
0
11
365.77780971971902
21
193.04982082801337
31
0
0
SPLINE
5
303
100
AcDbEntity
8
0
100
AcDbSpline
70
1064
71
3
72
20
73
16
74
0
42
0.000000001
43
0.0000000001
44
0.0000000001
40
0
40
0
40
0
40
0
40
0.20000000000000001
40
0.20000000000000001
40
0.20000000000000001
40
0.20000001000000001
40
0.40000000000000002
40
0.40000000000000002
40
0.40000000000000002
40
0.40000001000000018
40
0.59999999999999998
40
0.59999999999999998
40
0.59999999999999998
40
0.60000001000000025
40
1
40
1
40
1
40
1
10
279.70124593444206
20
-131.61706012019391
30
0
10
277.07094593444219
20
-131.61706012019391
30
0
10
274.93874593444218
20
-129.4848601201939
30
0
10
274.93874593444218
20
-126.8545601201939
30
0
10
274.93874593444218
20
-126.8545601201939
30
0
10
274.93874593444218
20
-124.22426012019392
30
0
10
277.07094593444219
20
-122.09206012019392
30
0
10
279.70124593444206
20
-122.09206012019392
30
0
10
279.70124593444206
20
-122.09206012019392
30
0
10
282.3315459344422
20
-122.09206012019392
30
0
10
284.46374593444216
20
-124.22426012019392
30
0
10
284.46374593444216
20
-126.8545601201939
30
0
10
284.46374593444216
20
-126.8545601201939
30
0
10
284.46374593444216
20
-129.4848601201939
30
0
10
282.3315459344422
20
-131.61706012019391
30
0
10
279.70124593444206
20
-131.61706012019391
30
0
0
LINE
5
304
100
AcDbEntity
8
0
100
AcDbLine
10
345.72775075912045
20
196.24986421616541
30
0
11
345.72785995033229
21
193.04982082801337
31
0
0
LINE
5
305
100
AcDbEntity
8
0
100
AcDbLine
10
365.77764593444186
20
-170.95006012019368
30
0
11
365.77764593444186
21
-167.7500167320417
31
0
0
LINE
5
306
100
AcDbEntity
8
0
100
AcDbLine
10
280.5277048950411
20
-170.95006012019383
30
0
11
280.52759570382926
21
-167.7500167320417
31
0
0
LINE
5
307
100
AcDbEntity
8
0
100
AcDbLine
10
237.02767272659548
20
-115.15006012019391
30
0
11
240.22782686819201
21
-115.15006012019391
31
0
0
LINE
5
308
100
AcDbEntity
8
0
100
AcDbLine
10
386.02762878596957
20
154.54995248471928
30
0
11
389.22762878596933
21
154.54995248471928
31
0
0
LINE
5
309
100
AcDbEntity
8
0
100
AcDbLine
10
240.22782686819201
20
-157.0500601201939
30
0
11
237.02782686819208
21
-157.0500601201939
31
0
0
LINE
5
310
100
AcDbEntity
8
0
100
AcDbLine
10
306.52798516024717
20
-170.95006012019383
30
0
11
306.52775008412925
21
-167.75001673204179
31
0
0
LINE
5
311
100
AcDbEntity
8
0
100
AcDbLine
10
365.77780971971902
20
196.24982082801338
30
0
11
386.02762878596957
21
196.24985152456537
31
0
0
LINE
5
312
100
AcDbEntity
8
0
100
AcDbLine
10
332.5276460744297
20
-167.7500167320417
30
0
11
319.72760129995254
21
-167.7500167320417
31
0
0
LINE
5
313
100
AcDbEntity
8
0
100
AcDbLine
10
365.77764593444186
20
-170.95006012019368
30
0
11
365.77764593444186
21
-167.7500167320417
31
0
0
LINE
5
314
100
AcDbEntity
8
0
100
AcDbLine
10
386.02762878597048
20
-142.95006012019383
30
0
11
389.22759342302152
21
-142.95006012019383
31
0
0
LINE
5
315
100
AcDbEntity
8
0
100
AcDbLine
10
386.02762878597048
20
-157.05006012019382
30
0
11
386.02762878597048
21
-170.95006012019368
31
0
0
LINE
5
316
100
AcDbEntity
8
0
100
AcDbLine
10
260.47764593444231
20
-167.7500167320417
30
0
11
260.47764593444231
21
-170.95001673204169
31
0
0
LINE
5
317
100
AcDbEntity
8
0
100
AcDbLine
10
332.52781557926812
20
193.04982082801337
30
0
11
332.52782445693606
21
196.24986421616541
31
0
0
LINE
5
318
100
AcDbEntity
8
0
100
AcDbLine
10
237.02767272659548
20
-115.15006012019391
30
0
11
240.22782686819201
21
-115.15006012019391
31
0
0
LINE
5
319
100
AcDbEntity
8
0
100
AcDbLine
10
386.02494373797322
20
168.24995222159947
30
0
11
389.2249436765145
21
168.25057938609501
31
0
0
LINE
5
320
100
AcDbEntity
8
0
100
AcDbLine
10
240.22782686819201
20
-115.15006012019391
30
0
11
240.22782686819201
21
-101.2500601224481
31
0
0
LINE
5
321
100
AcDbEntity
8
0
100
AcDbLine
10
386.02515380066342
20
182.34985174490907
30
0
11
386.02762878596957
21
196.24985152456537
31
0
0
LINE
5
322
100
AcDbEntity
8
0
100
AcDbLine
10
319.72770557003258
20
193.04982082801337
30
0
11
332.52781557926812
21
193.04982082801337
31
0
0
LINE
5
323
100
AcDbEntity
8
0
100
AcDbLine
10
306.52775008412925
20
-167.75001673204179
30
0
11
293.72764007489337
21
-167.7500167320417
31
0
0
LINE
5
324
100
AcDbEntity
8
0
100
AcDbLine
10
237.02768452054787
20
-129.25006012019392
30
0
11
237.02767272659548
21
-115.15006012019391
31
0
0
LINE
5
325
100
AcDbEntity
8
0
100
AcDbLine
10
386.02762878596957
20
154.54995248471928
30
0
11
386.02494373797322
21
168.24995222159947
31
0
0
LINE
5
326
100
AcDbEntity
8
0
100
AcDbLine
10
365.77780971971902
20
196.24982082801338
30
0
11
365.77780971971902
21
193.04982082801337
31
0
0
LINE
5
327
100
AcDbEntity
8
0
100
AcDbLine
10
332.5276460744297
20
-167.7500167320417
30
0
11
319.72760129995254
21
-167.7500167320417
31
0
0
LINE
5
328
100
AcDbEntity
8
0
100
AcDbLine
10
240.22782686819201
20
-142.94995916229419
30
0
11
240.22782686819201
21
-129.25006012019401
31
0
0
LINE
5
329
100
AcDbEntity
8
0
100
AcDbLine
10
389.22493188256215
20
182.35057938609486
30
0
11
389.2249436765145
21
168.25057938609501
31
0
0
LINE
5
330
100
AcDbEntity
8
0
100
AcDbLine
10
386.02515380066342
20
182.34985174490907
30
0
11
389.22493188256215
21
182.35057938609486
31
0
0
LINE
5
331
100
AcDbEntity
8
0
100
AcDbLine
10
389.22762878596933
20
154.54995248471928
30
0
11
386.02762878596957
21
154.54995248471928
31
0
0
LINE
5
332
100
AcDbEntity
8
0
100
AcDbLine
10
240.22782686819201
20
-170.95004742859379
30
0
11
240.22782686819201
21
-157.0500601201939
31
0
0
LINE
5
333
100
AcDbEntity
8
0
100
AcDbLine
10
389.22759342302152
20
-142.95006012019383
30
0
11
389.22762878597041
21
-157.05006012019382
31
0
0
LINE
5
334
100
AcDbEntity
8
0
100
AcDbLine
10
260.47764593444231
20
-170.95001673204169
30
0
11
240.22782686819201
21
-170.95004742859379
31
0
0
SPLINE
5
335
100
AcDbEntity
8
0
100
AcDbSpline
70
1064
71
3
72
20
73
16
74
0
42
0.000000001
43
0.0000000001
44
0.0000000001
40
0
40
0
40
0
40
0
40
0.20000000000000001
40
0.20000000000000001
40
0.20000000000000001
40
0.20000001000000001
40
0.40000000000000002
40
0.40000000000000002
40
0.40000000000000002
40
0.40000001000000018
40
0.59999999999999998
40
0.59999999999999998
40
0.59999999999999998
40
0.60000001000000025
40
1
40
1
40
1
40
1
10
279.70124593444206
20
-131.61706012019391
30
0
10
277.07094593444219
20
-131.61706012019391
30
0
10
274.93874593444218
20
-129.4848601201939
30
0
10
274.93874593444218
20
-126.8545601201939
30
0
10
274.93874593444218
20
-126.8545601201939
30
0
10
274.93874593444218
20
-124.22426012019392
30
0
10
277.07094593444219
20
-122.09206012019392
30
0
10
279.70124593444206
20
-122.09206012019392
30
0
10
279.70124593444206
20
-122.09206012019392
30
0
10
282.3315459344422
20
-122.09206012019392
30
0
10
284.46374593444216
20
-124.22426012019392
30
0
10
284.46374593444216
20
-126.8545601201939
30
0
10
284.46374593444216
20
-126.8545601201939
30
0
10
284.46374593444216
20
-129.4848601201939
30
0
10
282.3315459344422
20
-131.61706012019391
30
0
10
279.70124593444206
20
-131.61706012019391
30
0
0
LINE
5
336
100
AcDbEntity
8
0
100
AcDbLine
10
293.72764007489337
20
-167.7500167320417
30
0
11
293.72763119722555
21
-170.95006012019383
31
0
0
LINE
5
337
100
AcDbEntity
8
0
100
AcDbLine
10
319.72718441093178
20
-170.95006012019383
30
0
11
306.52798516024717
21
-170.95006012019383
31
0
0
LINE
5
338
100
AcDbEntity
8
0
100
AcDbLine
10
237.02782686819208
20
-157.0500601201939
30
0
11
237.02764593444238
21
-142.95007020202061
31
0
0
LINE
5
339
100
AcDbEntity
8
0
100
AcDbLine
10
260.47764593444231
20
-167.7500167320417
30
0
11
260.47764593444231
21
-170.95001673204169
31
0
0
LINE
5
340
100
AcDbEntity
8
0
100
AcDbLine
10
319.72760129995254
20
-167.7500167320417
30
0
11
319.72718441093178
21
-170.95006012019383
31
0
0
LINE
5
341
100
AcDbEntity
8
0
100
AcDbLine
10
293.72764007489337
20
-167.7500167320417
30
0
11
293.72763119722555
21
-170.95006012019383
31
0
0
LINE
5
342
100
AcDbEntity
8
0
100
AcDbLine
10
280.5277048950411
20
-170.95006012019383
30
0
11
280.52759570382926
21
-167.7500167320417
31
0
0
LINE
5
343
100
AcDbEntity
8
0
100
AcDbLine
10
365.77780971971902
20
193.04982082801337
30
0
11
365.77780971971902
21
196.24982082801338
31
0
0
LINE
5
344
100
AcDbEntity
8
0
100
AcDbLine
10
237.02764593444238
20
-142.95007020202061
30
0
11
240.22782686819201
21
-142.94995916229419
31
0
0
LINE
5
345
100
AcDbEntity
8
0
100
AcDbLine
10
332.52782445693606
20
196.24986421616541
30
0
11
345.72775075912045
21
196.24986421616541
31
0
0
LINE
5
346
100
AcDbEntity
8
0
100
AcDbLine
10
293.72763119722555
20
-170.95006012019383
30
0
11
280.5277048950411
21
-170.95006012019383
31
0
0
LINE
5
347
100
AcDbEntity
8
0
100
AcDbLine
10
319.72760129995254
20
-167.7500167320417
30
0
11
319.72718441093178
21
-170.95006012019383
31
0
0
LINE
5
348
100
AcDbEntity
8
0
100
AcDbLine
10
293.72763119722555
20
-170.95006012019383
30
0
11
280.5277048950411
21
-170.95006012019383
31
0
0
LINE
5
349
100
AcDbEntity
8
0
100
AcDbLine
10
386.02762878597048
20
-142.95006012019383
30
0
11
389.22759342302152
21
-142.95006012019383
31
0
0
LINE
5
350
100
AcDbEntity
8
0
100
AcDbLine
10
365.77764593444186
20
-167.7500167320417
30
0
11
345.72767770615224
21
-167.7500167320417
31
0
0
LINE
5
351
100
AcDbEntity
8
0
100
AcDbLine
10
386.02762878596957
20
112.64995248471939
30
0
11
386.02762878596957
21
98.749952486973626
31
0
0
LINE
5
352
100
AcDbEntity
8
0
100
AcDbLine
10
365.77764593444186
20
-167.7500167320417
30
0
11
345.72767770615224
21
-167.7500167320417
31
0
0
LINE
5
353
100
AcDbEntity
8
0
100
AcDbLine
10
389.22762878597041
20
-157.05006012019382
30
0
11
386.02762878597048
21
-157.05006012019382
31
0
0
LINE
5
354
100
AcDbEntity
8
0
100
AcDbLine
10
386.02762878597048
20
-170.95006012019368
30
0
11
365.77764593444186
21
-170.95006012019368
31
0
0
LINE
5
355
100
AcDbEntity
8
0
100
AcDbLine
10
345.72767770615224
20
-167.7500167320417
30
0
11
345.72753043431248
21
-170.95006012019383
31
0
0
LINE
5
356
100
AcDbEntity
8
0
100
AcDbLine
10
332.52764652448025
20
-170.95006012019383
30
0
11
332.5276460744297
21
-167.7500167320417
31
0
0
LINE
5
357
100
AcDbEntity
8
0
100
AcDbLine
10
306.52798516024717
20
-170.95006012019383
30
0
11
306.52775008412925
21
-167.75001673204179
31
0
0
LWPOLYLINE
5
358
100
AcDbEntity
8
0
100
AcDbPolyline
90
4
70
1
43
0.0
10
345.72784149142899
20
101.9499525280624
10
365.77780971971862
20
101.9499525280624
10
365.77780971971862
20
98.7499091399105
10
345.72769421958947
20
98.7499091399105
0
LINE
5
359
100
AcDbEntity
8
0
100
AcDbLine
10
386.02762878596957
20
126.74995248471939
30
0
11
389.22777113361354
21
126.74995248471939
31
0
0
LINE
5
360
100
AcDbEntity
8
0
100
AcDbLine
10
345.72753043431248
20
-170.95006012019383
30
0
11
332.52764652448025
21
-170.95006012019383
31
0
0
LINE
5
361
100
AcDbEntity
8
0
100
AcDbLine
10
332.52764652448025
20
-170.95006012019383
30
0
11
332.5276460744297
21
-167.7500167320417
31
0
0
LINE
5
362
100
AcDbEntity
8
0
100
AcDbLine
10
389.22762878597041
20
-157.05006012019382
30
0
11
386.02762878597048
21
-157.05006012019382
31
0
0
LINE
5
363
100
AcDbEntity
8
0
100
AcDbLine
10
319.72718441093178
20
-170.95006012019383
30
0
11
306.52798516024717
21
-170.95006012019383
31
0
0
LINE
5
364
100
AcDbEntity
8
0
100
AcDbLine
10
345.72767770615224
20
-167.7500167320417
30
0
11
345.72753043431248
21
-170.95006012019383
31
0
0
SPLINE
5
365
100
AcDbEntity
8
0
100
AcDbSpline
70
1064
71
3
72
20
73
16
74
0
42
0.000000001
43
0.0000000001
44
0.0000000001
40
0
40
0
40
0
40
0
40
0.20000000000000001
40
0.20000000000000001
40
0.20000000000000001
40
0.20000001000000001
40
0.40000000000000002
40
0.40000000000000002
40
0.40000000000000002
40
0.40000001000000018
40
0.59999999999999998
40
0.59999999999999998
40
0.59999999999999998
40
0.60000001000000025
40
1
40
1
40
1
40
1
10
346.55404593444189
20
-131.61706012019391
30
0
10
343.92374593444208
20
-131.61706012019391
30
0
10
341.79154593444201
20
-129.4848601201939
30
0
10
341.79154593444201
20
-126.8545601201939
30
0
10
341.79154593444201
20
-126.8545601201939
30
0
10
341.79154593444201
20
-124.22426012019392
30
0
10
343.92374593444208
20
-122.09206012019392
30
0
10
346.55404593444189
20
-122.09206012019392
30
0
10
346.55404593444189
20
-122.09206012019392
30
0
10
349.18434593444192
20
-122.09206012019392
30
0
10
351.31654593444193
20
-124.22426012019392
30
0
10
351.31654593444193
20
-126.8545601201939
30
0
10
351.31654593444193
20
-126.8545601201939
30
0
10
351.31654593444193
20
-129.4848601201939
30
0
10
349.18434593444192
20
-131.61706012019391
30
0
10
346.55404593444189
20
-131.61706012019391
30
0
0
LINE
5
366
100
AcDbEntity
8
0
100
AcDbLine
10
345.72753043431248
20
-170.95006012019383
30
0
11
332.52764652448025
21
-170.95006012019383
31
0
0
SPLINE
5
367
100
AcDbEntity
8
0
100
AcDbSpline
70
1064
71
3
72
20
73
16
74
0
42
0.000000001
43
0.0000000001
44
0.0000000001
40
0
40
0
40
0
40
0
40
0.20000000000000001
40
0.20000000000000001
40
0.20000000000000001
40
0.20000001000000001
40
0.40000000000000002
40
0.40000000000000002
40
0.40000000000000002
40
0.40000001000000018
40
0.59999999999999998
40
0.59999999999999998
40
0.59999999999999998
40
0.60000001000000025
40
1
40
1
40
1
40
1
10
346.55404593444189
20
-131.61706012019391
30
0
10
343.92374593444208
20
-131.61706012019391
30
0
10
341.79154593444201
20
-129.4848601201939
30
0
10
341.79154593444201
20
-126.8545601201939
30
0
10
341.79154593444201
20
-126.8545601201939
30
0
10
341.79154593444201
20
-124.22426012019392
30
0
10
343.92374593444208
20
-122.09206012019392
30
0
10
346.55404593444189
20
-122.09206012019392
30
0
10
346.55404593444189
20
-122.09206012019392
30
0
10
349.18434593444192
20
-122.09206012019392
30
0
10
351.31654593444193
20
-124.22426012019392
30
0
10
351.31654593444193
20
-126.8545601201939
30
0
10
351.31654593444193
20
-126.8545601201939
30
0
10
351.31654593444193
20
-129.4848601201939
30
0
10
349.18434593444192
20
-131.61706012019391
30
0
10
346.55404593444189
20
-131.61706012019391
30
0
0
LINE
5
368
100
AcDbEntity
8
0
100
AcDbLine
10
389.22759342302152
20
-142.95006012019383
30
0
11
389.22762878597041
21
-157.05006012019382
31
0
0
LINE
5
369
100
AcDbEntity
8
0
100
AcDbLine
10
389.22764593444185
20
-129.250037439777
30
0
11
386.02762878597036
21
-129.25013303002001
31
0
0
LINE
5
370
100
AcDbEntity
8
0
100
AcDbLine
10
389.22764593444185
20
-115.1501111214931
30
0
11
389.22764593444185
21
-129.250037439777
31
0
0
LINE
5
371
100
AcDbEntity
8
0
100
AcDbLine
10
389.22762878596933
20
154.54995248471928
30
0
11
389.22780971971895
21
140.44996256654622
31
0
0
LINE
5
372
100
AcDbEntity
8
0
100
AcDbLine
10
386.02762878597036
20
-115.15009210438021
30
0
11
389.22764593444185
21
-115.1501111214931
31
0
0
LINE
5
373
100
AcDbEntity
8
0
100
AcDbLine
10
389.22764593444185
20
-115.1501111214931
30
0
11
389.22764593444185
21
-129.250037439777
31
0
0
LINE
5
374
100
AcDbEntity
8
0
100
AcDbLine
10
389.22777113361354
20
126.74995248471939
30
0
11
389.22778292756595
21
112.64995248471939
31
0
0
LINE
5
375
100
AcDbEntity
8
0
100
AcDbLine
10
386.02762878597036
20
-101.250060163537
30
0
11
386.02762878597036
21
-115.15009210438021
31
0
0
LINE
5
376
100
AcDbEntity
8
0
100
AcDbLine
10
386.02762878597036
20
-129.25013303002001
30
0
11
386.02762878597048
21
-142.95006012019383
31
0
0
LINE
5
377
100
AcDbEntity
8
0
100
AcDbLine
10
386.02762878597036
20
-129.25013303002001
30
0
11
386.02762878597048
21
-142.95006012019383
31
0
0
LINE
5
378
100
AcDbEntity
8
0
100
AcDbLine
10
386.02762878597036
20
-101.250060163537
30
0
11
386.02762878597036
21
-115.15009210438021
31
0
0
LINE
5
379
100
AcDbEntity
8
0
100
AcDbLine
10
389.22764593444185
20
-129.250037439777
30
0
11
386.02762878597036
21
-129.25013303002001
31
0
0
LINE
5
380
100
AcDbEntity
8
0
100
AcDbLine
10
386.02762878597036
20
-115.15009210438021
30
0
11
389.22764593444185
21
-115.1501111214931
31
0
0
LINE
5
381
100
AcDbEntity
8
0
100
AcDbLine
10
240.22799065346925
20
98.749921831510477
30
0
11
240.22799065346888
21
-101.250078168489
31
0
0
LINE
5
382
100
AcDbEntity
8
0
100
AcDbLine
10
389.22780971971895
20
140.44996256654622
30
0
11
386.02762878596957
21
140.4498515268198
31
0
0
LINE
5
383
100
AcDbEntity
8
0
100
AcDbLine
10
389.22778292756595
20
112.64995248471939
30
0
11
386.02762878596957
21
112.64995248471939
31
0
0
LINE
5
384
100
AcDbEntity
8
0
100
AcDbLine
10
386.02762878596957
20
140.4498515268198
30
0
11
386.02762878596957
21
126.74995248471939
31
0
0
LINE
5
385
100
AcDbEntity
8
0
100
AcDbLine
10
386.02762878596883
20
98.749939836462502
30
0
11
386.02762878597036
21
-101.250060163537
31
0
0
LWPOLYLINE
5
386
100
AcDbEntity
8
0
100
AcDbPolyline
90
4
70
1
43
0.0
10
283.6278708685719
20
157.49990837211391
10
280.6278708685719
20
157.49990837211391
10
280.6278708685719
20
187.49990837211388
10
283.6278708685719
20
187.49990837211388
0
LINE
5
387
100
AcDbEntity
8
0
100
AcDbLine
10
237.0278268681912
20
154.5499524847192
30
0
11
240.2278268681911
21
154.5499524847192
31
0
0
LINE
5
388
100
AcDbEntity
8
0
100
AcDbLine
10
240.2278268681911
20
98.749952528062522
30
0
11
240.2278268681911
21
112.64998446890571
31
0
0
LWPOLYLINE
5
389
100
AcDbEntity
8
0
100
AcDbPolyline
90
4
70
1
43
0.0
10
345.62787086857168
20
157.49990837211391
10
345.62787086857168
20
187.49990837211388
10
348.62787086857179
20
187.49990837211388
10
348.62787086857179
20
157.49990837211391
0
LWPOLYLINE
5
390
100
AcDbEntity
8
0
100
AcDbPolyline
90
4
70
1
43
0.0
10
260.47780971971952
20
101.9499525280624
10
260.47780971971952
20
98.749952528062494
10
280.52786868031808
20
98.749909139910471
10
280.5277594891063
20
101.9499525280624
0
LINE
5
391
100
AcDbEntity
8
0
100
AcDbLine
10
240.2278268681911
20
154.5499524847192
30
0
11
240.2278268681911
21
168.24995248471922
31
0
0
LINE
5
392
100
AcDbEntity
8
0
100
AcDbLine
10
237.0278097197197
20
126.7499298043025
30
0
11
240.2278268681911
21
126.7500253945456
31
0
0
LINE
5
393
100
AcDbEntity
8
0
100
AcDbLine
10
237.0278097197197
20
112.65000348601868
30
0
11
237.0278097197197
21
126.7499298043025
31
0
0
LINE
5
394
100
AcDbEntity
8
0
100
AcDbLine
10
293.72780957973197
20
193.04982082801337
30
0
11
306.52785435420913
21
193.04982082801337
31
0
0
LINE
5
395
100
AcDbEntity
8
0
100
AcDbLine
10
319.72747049391438
20
196.24986421616541
30
0
11
319.72770557003258
21
193.04982082801337
31
0
0
LINE
5
396
100
AcDbEntity
8
0
100
AcDbLine
10
306.52827124322988
20
196.24986421616541
30
0
11
319.72747049391438
21
196.24986421616541
31
0
0
LINE
5
397
100
AcDbEntity
8
0
100
AcDbLine
10
240.2278268681911
20
112.64998446890571
30
0
11
237.0278097197197
21
112.65000348601868
31
0
0
LINE
5
398
100
AcDbEntity
8
0
100
AcDbLine
10
240.2278268681911
20
140.44995248471929
30
0
11
237.02786223114015
21
140.44995248471929
31
0
0
LINE
5
399
100
AcDbEntity
8
0
100
AcDbLine
10
260.4778097197198
20
196.24986421616541
30
0
11
260.4778097197198
21
193.04982082801337
31
0
0
LINE
5
400
100
AcDbEntity
8
0
100
AcDbLine
10
237.0278268681912
20
168.24995248471922
30
0
11
237.0278268681912
21
182.34995248471921
31
0
0
LINE
5
401
100
AcDbEntity
8
0
100
AcDbLine
10
237.02786223114015
20
140.44995248471929
30
0
11
237.0278268681912
21
154.5499524847192
31
0
0
LINE
5
402
100
AcDbEntity
8
0
100
AcDbLine
10
240.22782686819147
20
196.24986421616541
30
0
11
260.4778097197198
21
196.24986421616541
31
0
0
LINE
5
403
100
AcDbEntity
8
0
100
AcDbLine
10
237.0278268681912
20
154.5499524847192
30
0
11
240.2278268681911
21
154.5499524847192
31
0
0
LINE
5
404
100
AcDbEntity
8
0
100
AcDbLine
10
240.2278268681911
20
126.7500253945456
30
0
11
240.2278268681911
21
140.44995248471929
31
0
0
LINE
5
405
100
AcDbEntity
8
0
100
AcDbLine
10
280.52777794800937
20
193.04982082801337
30
0
11
280.52792521984918
21
196.24986421616541
31
0
0
LINE
5
406
100
AcDbEntity
8
0
100
AcDbLine
10
306.52785435420913
20
193.04982082801337
30
0
11
306.52827124322988
21
196.24986421616541
31
0
0
LINE
5
407
100
AcDbEntity
8
0
100
AcDbLine
10
293.72780912968142
20
196.24986421616541
30
0
11
293.72780957973197
21
193.04982082801337
31
0
0
LINE
5
408
100
AcDbEntity
8
0
100
AcDbLine
10
260.4778097197198
20
193.04982082801337
30
0
11
280.52777794800937
21
193.04982082801337
31
0
0
LINE
5
409
100
AcDbEntity
8
0
100
AcDbLine
10
280.52792521984918
20
196.24986421616541
30
0
11
293.72780912968142
21
196.24986421616541
31
0
0
LINE
5
410
100
AcDbEntity
8
0
100
AcDbLine
10
260.47780971971952
20
101.9499525280624
30
0
11
260.47780971971952
21
98.749952528062494
31
0
0
LINE
5
411
100
AcDbEntity
8
0
100
AcDbLine
10
237.0278268681912
20
182.34995248471921
30
0
11
240.2278268681911
21
182.34995248471921
31
0
0
LINE
5
412
100
AcDbEntity
8
0
100
AcDbLine
10
240.2278268681911
20
182.34995248471921
30
0
11
240.22782686819147
21
196.24986421616541
31
0
0
LINE
5
413
100
AcDbEntity
8
0
100
AcDbLine
10
240.2278268681911
20
168.24995248471922
30
0
11
237.0278268681912
21
168.24995248471922
31
0
0
LWPOLYLINE
5
414
100
AcDbEntity
8
0
100
AcDbPolyline
90
4
70
1
43
0.0
10
96.028092508443009
20
160.94213121984382
10
93.028092508443024
20
160.94213121984382
10
93.028092508443024
20
190.9421312198437
10
96.028092508443009
20
190.9421312198437
0
LWPOLYLINE
5
415
100
AcDbEntity
8
0
100
AcDbPolyline
90
4
70
1
43
0.0
10
96.028092508442967
20
110.94213121984382
10
93.028092508442981
20
110.94213121984382
10
93.028092508443024
20
140.9421312198437
10
96.028092508443009
20
140.9421312198437
0
LWPOLYLINE
5
416
100
AcDbEntity
8
0
100
AcDbPolyline
90
4
70
1
43
0.0
10
161.02809250844288
20
110.94213121984382
10
161.02809250844288
20
140.9421312198437
10
158.02809250844288
20
140.9421312198437
10
158.0280925084428
20
110.94213121984382
0
LWPOLYLINE
5
417
100
AcDbEntity
8
0
100
AcDbPolyline
90
4
70
1
43
0.0
10
158.02809250844288
20
160.94213121984382
10
158.02809250844288
20
190.9421312198437
10
161.02809250844288
20
190.9421312198437
10
161.02809250844288
20
160.94213121984382
0
LINE
5
418
100
AcDbEntity
8
0
100
AcDbLine
10
52.628048508062129
20
185.79217533244912
30
0
11
52.628048508062449
21
199.69208706389534
31
0
0
LINE
5
419
100
AcDbEntity
8
0
100
AcDbLine
10
49.428048508062126
20
185.79217533244912
30
0
11
52.628048508062129
21
185.79217533244912
31
0
0
LINE
5
420
100
AcDbEntity
8
0
100
AcDbLine
10
49.428048508062126
20
171.6921753324491
30
0
11
49.428048508062126
21
185.79217533244912
31
0
0
LINE
5
421
100
AcDbEntity
8
0
100
AcDbLine
10
52.628048508062129
20
171.6921753324491
30
0
11
49.428048508062126
21
171.6921753324491
31
0
0
LINE
5
422
100
AcDbEntity
8
0
100
AcDbLine
10
52.628048508062129
20
157.99217533244911
30
0
11
52.628048508062129
21
171.6921753324491
31
0
0
LINE
5
423
100
AcDbEntity
8
0
100
AcDbLine
10
198.42516537784431
20
171.69217506932927
30
0
11
201.6251653163857
21
171.69280223382481
31
0
0
LINE
5
424
100
AcDbEntity
8
0
100
AcDbLine
10
198.42537544053442
20
185.79207459263893
30
0
11
198.42785042584052
21
199.69207437229531
31
0
0
LINE
5
425
100
AcDbEntity
8
0
100
AcDbLine
10
198.42785042584052
20
157.99217533244919
30
0
11
198.42516537784431
21
171.69217506932927
31
0
0
LINE
5
426
100
AcDbEntity
8
0
100
AcDbLine
10
201.62515352243321
20
185.79280223382469
30
0
11
201.6251653163857
21
171.69280223382481
31
0
0
LINE
5
427
100
AcDbEntity
8
0
100
AcDbLine
10
198.42537544053442
20
185.79207459263893
30
0
11
201.62515352243321
21
185.79280223382469
31
0
0
LINE
5
428
100
AcDbEntity
8
0
100
AcDbLine
10
198.42785042584148
20
-111.70786925665071
30
0
11
201.62786757431292
21
-111.70788827376359
31
0
0
LINE
5
429
100
AcDbEntity
8
0
100
AcDbLine
10
201.62786757431292
20
-111.70788827376359
30
0
11
201.62786757431292
21
-125.80781459204751
31
0
0
LINE
5
430
100
AcDbEntity
8
0
100
AcDbLine
10
198.42785042584148
20
-111.70786925665071
30
0
11
201.62786757431292
21
-111.70788827376359
31
0
0
LINE
5
431
100
AcDbEntity
8
0
100
AcDbLine
10
201.62785042584159
20
-153.60783727246439
30
0
11
198.42785042584148
21
-153.60783727246439
31
0
0
SPLINE
5
432
100
AcDbEntity
8
0
100
AcDbSpline
70
1064
71
3
72
20
73
16
74
0
42
0.000000001
43
0.0000000001
44
0.0000000001
40
0
40
0
40
0
40
0
40
0.20000000000000001
40
0.20000000000000001
40
0.20000000000000001
40
0.20000001000000001
40
0.40000000000000002
40
0.40000000000000002
40
0.40000000000000002
40
0.40000001000000018
40
0.59999999999999998
40
0.59999999999999998
40
0.59999999999999998
40
0.60000001000000025
40
1
40
1
40
1
40
1
10
158.95426757431301
20
-128.1748372724644
30
0
10
156.32396757431312
20
-128.1748372724644
30
0
10
154.19176757431299
20
-126.0426372724643
30
0
10
154.19176757431299
20
-123.4123372724644
30
0
10
154.19176757431299
20
-123.4123372724644
30
0
10
154.19176757431299
20
-120.78203727246439
30
0
10
156.32396757431312
20
-118.6498372724644
30
0
10
158.95426757431301
20
-118.6498372724644
30
0
10
158.95426757431301
20
-118.6498372724644
30
0
10
161.58456757431298
20
-118.6498372724644
30
0
10
163.716767574313
20
-120.78203727246439
30
0
10
163.716767574313
20
-123.4123372724644
30
0
10
163.716767574313
20
-123.4123372724644
30
0
10
163.716767574313
20
-126.0426372724643
30
0
10
161.58456757431298
20
-128.1748372724644
30
0
10
158.95426757431301
20
-128.1748372724644
30
0
0
LINE
5
433
100
AcDbEntity
8
0
100
AcDbLine
10
158.12775207418358
20
-167.50783727246429
30
0
11
144.92786816435131
21
-167.50783727246429
31
0
0
LINE
5
434
100
AcDbEntity
8
0
100
AcDbLine
10
198.42785042584148
20
-167.50783727246429
30
0
11
178.1778675743131
21
-167.50783727246429
31
0
0
LINE
5
435
100
AcDbEntity
8
0
100
AcDbLine
10
158.1278993460233
20
-164.30779388431219
30
0
11
158.12775207418358
21
-167.50783727246429
31
0
0
LINE
5
436
100
AcDbEntity
8
0
100
AcDbLine
10
178.1778675743131
20
-164.30779388431219
30
0
11
158.1278993460233
21
-164.30779388431219
31
0
0
LINE
5
437
100
AcDbEntity
8
0
100
AcDbLine
10
201.62786757431292
20
-125.80781459204751
30
0
11
198.42785042584148
21
-125.8079101822905
31
0
0
LINE
5
438
100
AcDbEntity
8
0
100
AcDbLine
10
201.62785042584159
20
-153.60783727246439
30
0
11
198.42785042584148
21
-153.60783727246439
31
0
0
LINE
5
439
100
AcDbEntity
8
0
100
AcDbLine
10
201.62786757431292
20
-111.70788827376359
30
0
11
201.62786757431292
21
-125.80781459204751
31
0
0
LINE
5
440
100
AcDbEntity
8
0
100
AcDbLine
10
198.42785042584148
20
-97.80783731580749
30
0
11
198.42785042584148
21
-111.70786925665071
31
0
0
LINE
5
441
100
AcDbEntity
8
0
100
AcDbLine
10
144.92786816435131
20
-167.50783727246429
30
0
11
144.92786771430079
21
-164.30779388431219
31
0
0
LINE
5
442
100
AcDbEntity
8
0
100
AcDbLine
10
198.42785042584148
20
-125.8079101822905
30
0
11
198.42785042584148
21
-139.50783727246429
31
0
0
LINE
5
443
100
AcDbEntity
8
0
100
AcDbLine
10
158.1278993460233
20
-164.30779388431219
30
0
11
158.12775207418358
21
-167.50783727246429
31
0
0
LINE
5
444
100
AcDbEntity
8
0
100
AcDbLine
10
201.62781506289249
20
-139.50783727246429
30
0
11
201.62785042584159
21
-153.60783727246439
31
0
0
LINE
5
445
100
AcDbEntity
8
0
100
AcDbLine
10
198.42785042584148
20
-139.50783727246429
30
0
11
201.62781506289249
21
-139.50783727246429
31
0
0
LINE
5
446
100
AcDbEntity
8
0
100
AcDbLine
10
198.42785042584148
20
-153.60783727246439
30
0
11
198.42785042584148
21
-167.50783727246429
31
0
0
LINE
5
447
100
AcDbEntity
8
0
100
AcDbLine
10
178.1778675743131
20
-164.30779388431219
30
0
11
158.1278993460233
21
-164.30779388431219
31
0
0
LINE
5
448
100
AcDbEntity
8
0
100
AcDbLine
10
198.42785042584148
20
-125.8079101822905
30
0
11
198.42785042584148
21
-139.50783727246429
31
0
0
LINE
5
449
100
AcDbEntity
8
0
100
AcDbLine
10
178.1778675743131
20
-167.50783727246429
30
0
11
178.1778675743131
21
-164.30779388431219
31
0
0
LINE
5
450
100
AcDbEntity
8
0
100
AcDbLine
10
144.92786816435131
20
-167.50783727246429
30
0
11
144.92786771430079
21
-164.30779388431219
31
0
0
LINE
5
451
100
AcDbEntity
8
0
100
AcDbLine
10
198.42785042584148
20
-97.80783731580749
30
0
11
198.42785042584148
21
-111.70786925665071
31
0
0
LINE
5
452
100
AcDbEntity
8
0
100
AcDbLine
10
158.12775207418358
20
-167.50783727246429
30
0
11
144.92786816435131
21
-167.50783727246429
31
0
0
LINE
5
453
100
AcDbEntity
8
0
100
AcDbLine
10
132.12740605080282
20
-167.50783727246429
30
0
11
118.92820680011822
21
-167.50783727246429
31
0
0
LINE
5
454
100
AcDbEntity
8
0
100
AcDbLine
10
49.427867574313296
20
-139.5078473542911
30
0
11
52.628048508062989
21
-139.50773631456471
31
0
0
LINE
5
455
100
AcDbEntity
8
0
100
AcDbLine
10
118.92820680011822
20
-167.50783727246429
30
0
11
118.92797172400009
21
-164.3077938843123
31
0
0
LINE
5
456
100
AcDbEntity
8
0
100
AcDbLine
10
72.877867574313242
20
-167.50779388431221
30
0
11
52.628048508062989
21
-167.50782458086431
31
0
0
SPLINE
5
457
100
AcDbEntity
8
0
100
AcDbSpline
70
1064
71
3
72
20
73
16
74
0
42
0.000000001
43
0.0000000001
44
0.0000000001
40
0
40
0
40
0
40
0
40
0.20000000000000001
40
0.20000000000000001
40
0.20000000000000001
40
0.20000001000000001
40
0.40000000000000002
40
0.40000000000000002
40
0.40000000000000002
40
0.40000001000000018
40
0.59999999999999998
40
0.59999999999999998
40
0.59999999999999998
40
0.60000001000000025
40
1
40
1
40
1
40
1
10
92.101467574313162
20
-128.1748372724644
30
0
10
89.471167574313142
20
-128.1748372724644
30
0
10
87.338967574313187
20
-126.0426372724643
30
0
10
87.338967574313187
20
-123.4123372724644
30
0
10
87.338967574313187
20
-123.4123372724644
30
0
10
87.338967574313187
20
-120.78203727246439
30
0
10
89.471167574313142
20
-118.6498372724644
30
0
10
92.101467574313162
20
-118.6498372724644
30
0
10
92.101467574313162
20
-118.6498372724644
30
0
10
94.731767574313295
20
-118.6498372724644
30
0
10
96.863967574313165
20
-120.78203727246439
30
0
10
96.863967574313165
20
-123.4123372724644
30
0
10
96.863967574313165
20
-123.4123372724644
30
0
10
96.863967574313165
20
-126.0426372724643
30
0
10
94.731767574313295
20
-128.1748372724644
30
0
10
92.101467574313162
20
-128.1748372724644
30
0
0
LINE
5
458
100
AcDbEntity
8
0
100
AcDbLine
10
72.877867574313242
20
-164.30779388431219
30
0
11
72.877867574313242
21
-167.50779388431221
31
0
0
LINE
5
459
100
AcDbEntity
8
0
100
AcDbLine
10
49.427894366466404
20
-111.70783727246439
30
0
11
52.628048508062989
21
-111.70783727246439
31
0
0
LINE
5
460
100
AcDbEntity
8
0
100
AcDbLine
10
92.927926534912075
20
-167.50783727246429
30
0
11
92.927817343700269
21
-164.30779388431219
31
0
0
LINE
5
461
100
AcDbEntity
8
0
100
AcDbLine
10
52.628048508062989
20
-167.50782458086431
30
0
11
52.628048508062989
21
-153.60783727246439
31
0
0
LINE
5
462
100
AcDbEntity
8
0
100
AcDbLine
10
178.1778675743131
20
-167.50783727246429
30
0
11
178.1778675743131
21
-164.30779388431219
31
0
0
LINE
5
463
100
AcDbEntity
8
0
100
AcDbLine
10
201.62781506289249
20
-139.50783727246429
30
0
11
201.62785042584159
21
-153.60783727246439
31
0
0
LINE
5
464
100
AcDbEntity
8
0
100
AcDbLine
10
49.428048508063014
20
-153.60783727246439
30
0
11
49.427867574313296
21
-139.5078473542911
31
0
0
LINE
5
465
100
AcDbEntity
8
0
100
AcDbLine
10
72.877867574313242
20
-167.50779388431221
30
0
11
52.628048508062989
21
-167.50782458086431
31
0
0
LINE
5
466
100
AcDbEntity
8
0
100
AcDbLine
10
198.42785042584148
20
-153.60783727246439
30
0
11
198.42785042584148
21
-167.50783727246429
31
0
0
LINE
5
467
100
AcDbEntity
8
0
100
AcDbLine
10
201.62786757431292
20
-125.80781459204751
30
0
11
198.42785042584148
21
-125.8079101822905
31
0
0
LINE
5
468
100
AcDbEntity
8
0
100
AcDbLine
10
198.42785042584148
20
-139.50783727246429
30
0
11
201.62781506289249
21
-139.50783727246429
31
0
0
LINE
5
469
100
AcDbEntity
8
0
100
AcDbLine
10
92.927926534912075
20
-167.50783727246429
30
0
11
92.927817343700269
21
-164.30779388431219
31
0
0
LINE
5
470
100
AcDbEntity
8
0
100
AcDbLine
10
52.628048508062989
20
-139.50773631456471
30
0
11
52.628048508062989
21
-125.8078372724644
31
0
0
LINE
5
471
100
AcDbEntity
8
0
100
AcDbLine
10
49.427906160418871
20
-125.8078372724644
30
0
11
49.427894366466404
21
-111.70783727246439
31
0
0
LINE
5
472
100
AcDbEntity
8
0
100
AcDbLine
10
52.628048508062989
20
-111.70783727246439
30
0
11
52.628048508062989
21
-97.807837274718509
31
0
0
LINE
5
473
100
AcDbEntity
8
0
100
AcDbLine
10
49.427894366466404
20
-111.70783727246439
30
0
11
52.628048508062989
21
-111.70783727246439
31
0
0
LINE
5
474
100
AcDbEntity
8
0
100
AcDbLine
10
52.628048508062989
20
-139.50773631456471
30
0
11
52.628048508062989
21
-125.8078372724644
31
0
0
LINE
5
475
100
AcDbEntity
8
0
100
AcDbLine
10
52.628048508062989
20
-125.8078372724644
30
0
11
49.427906160418871
21
-125.8078372724644
31
0
0
LINE
5
476
100
AcDbEntity
8
0
100
AcDbLine
10
144.92786771430079
20
-164.30779388431219
30
0
11
132.12782293982369
21
-164.30779388431219
31
0
0
LINE
5
477
100
AcDbEntity
8
0
100
AcDbLine
10
52.628048508062989
20
-125.8078372724644
30
0
11
49.427906160418871
21
-125.8078372724644
31
0
0
LINE
5
478
100
AcDbEntity
8
0
100
AcDbLine
10
118.92820680011822
20
-167.50783727246429
30
0
11
118.92797172400009
21
-164.3077938843123
31
0
0
LINE
5
479
100
AcDbEntity
8
0
100
AcDbLine
10
106.1278528370965
20
-167.50783727246429
30
0
11
92.927926534912075
21
-167.50783727246429
31
0
0
SPLINE
5
480
100
AcDbEntity
8
0
100
AcDbSpline
70
1064
71
3
72
20
73
16
74
0
42
0.000000001
43
0.0000000001
44
0.0000000001
40
0
40
0
40
0
40
0
40
0.20000000000000001
40
0.20000000000000001
40
0.20000000000000001
40
0.20000001000000001
40
0.40000000000000002
40
0.40000000000000002
40
0.40000000000000002
40
0.40000001000000018
40
0.59999999999999998
40
0.59999999999999998
40
0.59999999999999998
40
0.60000001000000025
40
1
40
1
40
1
40
1
10
92.101467574313162
20
-128.1748372724644
30
0
10
89.471167574313142
20
-128.1748372724644
30
0
10
87.338967574313187
20
-126.0426372724643
30
0
10
87.338967574313187
20
-123.4123372724644
30
0
10
87.338967574313187
20
-123.4123372724644
30
0
10
87.338967574313187
20
-120.78203727246439
30
0
10
89.471167574313142
20
-118.6498372724644
30
0
10
92.101467574313162
20
-118.6498372724644
30
0
10
92.101467574313162
20
-118.6498372724644
30
0
10
94.731767574313295
20
-118.6498372724644
30
0
10
96.863967574313165
20
-120.78203727246439
30
0
10
96.863967574313165
20
-123.4123372724644
30
0
10
96.863967574313165
20
-123.4123372724644
30
0
10
96.863967574313165
20
-126.0426372724643
30
0
10
94.731767574313295
20
-128.1748372724644
30
0
10
92.101467574313162
20
-128.1748372724644
30
0
0
LINE
5
481
100
AcDbEntity
8
0
100
AcDbLine
10
144.92786771430079
20
-164.30779388431219
30
0
11
132.12782293982369
21
-164.30779388431219
31
0
0
LINE
5
482
100
AcDbEntity
8
0
100
AcDbLine
10
198.42785042584148
20
-167.50783727246429
30
0
11
178.1778675743131
21
-167.50783727246429
31
0
0
LINE
5
483
100
AcDbEntity
8
0
100
AcDbLine
10
49.428048508063014
20
-153.60783727246439
30
0
11
49.427867574313296
21
-139.5078473542911
31
0
0
LINE
5
484
100
AcDbEntity
8
0
100
AcDbLine
10
132.12740605080282
20
-167.50783727246429
30
0
11
118.92820680011822
21
-167.50783727246429
31
0
0
LINE
5
485
100
AcDbEntity
8
0
100
AcDbLine
10
118.92797172400009
20
-164.3077938843123
30
0
11
106.12786171476441
21
-164.30779388431219
31
0
0
LINE
5
486
100
AcDbEntity
8
0
100
AcDbLine
10
49.427867574313296
20
-139.5078473542911
30
0
11
52.628048508062989
21
-139.50773631456471
31
0
0
LINE
5
487
100
AcDbEntity
8
0
100
AcDbLine
10
92.927817343700269
20
-164.30779388431219
30
0
11
72.877867574313242
21
-164.30779388431219
31
0
0
LINE
5
488
100
AcDbEntity
8
0
100
AcDbLine
10
92.927817343700269
20
-164.30779388431219
30
0
11
72.877867574313242
21
-164.30779388431219
31
0
0
LINE
5
489
100
AcDbEntity
8
0
100
AcDbLine
10
52.628048508062989
20
-153.60783727246439
30
0
11
49.428048508063014
21
-153.60783727246439
31
0
0
LINE
5
490
100
AcDbEntity
8
0
100
AcDbLine
10
106.12786171476441
20
-164.30779388431219
30
0
11
106.1278528370965
21
-167.50783727246429
31
0
0
LINE
5
491
100
AcDbEntity
8
0
100
AcDbLine
10
52.628048508062989
20
-167.50782458086431
30
0
11
52.628048508062989
21
-153.60783727246439
31
0
0
LINE
5
492
100
AcDbEntity
8
0
100
AcDbLine
10
52.628048508062989
20
-111.70783727246439
30
0
11
52.628048508062989
21
-97.807837274718509
31
0
0
LINE
5
493
100
AcDbEntity
8
0
100
AcDbLine
10
106.12786171476441
20
-164.30779388431219
30
0
11
106.1278528370965
21
-167.50783727246429
31
0
0
LINE
5
494
100
AcDbEntity
8
0
100
AcDbLine
10
118.92797172400009
20
-164.3077938843123
30
0
11
106.12786171476441
21
-164.30779388431219
31
0
0
SPLINE
5
495
100
AcDbEntity
8
0
100
AcDbSpline
70
1064
71
3
72
20
73
16
74
0
42
0.000000001
43
0.0000000001
44
0.0000000001
40
0
40
0
40
0
40
0
40
0.20000000000000001
40
0.20000000000000001
40
0.20000000000000001
40
0.20000001000000001
40
0.40000000000000002
40
0.40000000000000002
40
0.40000000000000002
40
0.40000001000000018
40
0.59999999999999998
40
0.59999999999999998
40
0.59999999999999998
40
0.60000001000000025
40
1
40
1
40
1
40
1
10
158.95426757431301
20
-128.1748372724644
30
0
10
156.32396757431312
20
-128.1748372724644
30
0
10
154.19176757431299
20
-126.0426372724643
30
0
10
154.19176757431299
20
-123.4123372724644
30
0
10
154.19176757431299
20
-123.4123372724644
30
0
10
154.19176757431299
20
-120.78203727246439
30
0
10
156.32396757431312
20
-118.6498372724644
30
0
10
158.95426757431301
20
-118.6498372724644
30
0
10
158.95426757431301
20
-118.6498372724644
30
0
10
161.58456757431298
20
-118.6498372724644
30
0
10
163.716767574313
20
-120.78203727246439
30
0
10
163.716767574313
20
-123.4123372724644
30
0
10
163.716767574313
20
-123.4123372724644
30
0
10
163.716767574313
20
-126.0426372724643
30
0
10
161.58456757431298
20
-128.1748372724644
30
0
10
158.95426757431301
20
-128.1748372724644
30
0
0
LINE
5
496
100
AcDbEntity
8
0
100
AcDbLine
10
49.427906160418871
20
-125.8078372724644
30
0
11
49.427894366466404
21
-111.70783727246439
31
0
0
LINE
5
497
100
AcDbEntity
8
0
100
AcDbLine
10
72.877867574313242
20
-164.30779388431219
30
0
11
72.877867574313242
21
-167.50779388431221
31
0
0
LINE
5
498
100
AcDbEntity
8
0
100
AcDbLine
10
52.628048508062989
20
-153.60783727246439
30
0
11
49.428048508063014
21
-153.60783727246439
31
0
0
LINE
5
499
100
AcDbEntity
8
0
100
AcDbLine
10
132.12782293982369
20
-164.30779388431219
30
0
11
132.12740605080282
21
-167.50783727246429
31
0
0
LINE
5
500
100
AcDbEntity
8
0
100
AcDbLine
10
132.12782293982369
20
-164.30779388431219
30
0
11
132.12740605080282
21
-167.50783727246429
31
0
0
LINE
5
501
100
AcDbEntity
8
0
100
AcDbLine
10
106.1278528370965
20
-167.50783727246429
30
0
11
92.927926534912075
21
-167.50783727246429
31
0
0
LWPOLYLINE
5
502
100
AcDbEntity
8
0
100
AcDbPolyline
90
40
70
1
43
0.0
10
-272.482599956657
20
-70.409507148471462
10
-272.482599956657
20
-87.459490000000031
10
-269.28259995665701
20
-87.459490000000031
10
-269.28259995665701
20
-90.659490000000034
10
-258.58259995665713
20
-90.659490000000034
10
-258.58259995665713
20
-93.859490000000037
10
-244.48259995665697
20
-93.859454637051044
10
-244.48259995665697
20
-90.659490000000034
10
-230.78267286648304
20
-90.659490000000034
10
-230.78257727624009
20
-93.859507148471465
10
-216.68265095795607
20
-93.859507148471465
10
-216.68263194084329
20
-90.659490000000034
10
-202.78260000000012
20
-90.659490000000034
10
-202.78259995891108
20
55.140311917778853
10
-216.68259995665696
20
55.140311917778853
10
-216.68259995665696
20
58.34046605937548
10
-230.78259995665695
20
58.340454265422991
10
-230.78259995665712
20
55.140311917778853
10
-244.48249899875731
20
55.140311917778853
10
-244.48261003848373
20
58.340492851528573
10
-258.58259995665713
20
58.340311917778848
10
-258.58259995665713
20
55.140311917778853
10
-269.28258726505697
20
55.140311917778853
10
-269.28258726505697
20
51.94031191777885
10
-272.48258726505702
20
51.94031191777885
10
-272.48255656850489
20
34.890492851528549
10
-269.2825565685049
20
34.890492851528549
10
-269.2825565685049
20
14.84054308214146
10
-272.482599956657
20
14.84043389092967
10
-272.482599956657
20
1.6405075887452549
10
-269.2825565685049
20
1.6404987110773028
10
-269.28255656850502
20
-11.159611298158429
10
-272.482599956657
20
-11.159846374276508
10
-272.482599956657
20
-24.359045624961194
10
-269.2825565685049
20
-24.359462513981992
10
-269.2825565685049
20
-37.159507288459189
10
-272.482599956657
20
-37.159507738509731
10
-272.482599956657
20
-50.359391648342005
10
-269.2825565685049
20
-50.359538920181699
10
-269.28255656850502
20
-70.409507148471462
0
LINE
5
503
100
AcDbEntity
8
0
100
AcDbLine
10
-258.58259995665713
20
-90.659490000000034
30
0
11
-269.28259995665701
21
-90.659490000000034
31
0
0
SPLINE
5
504
100
AcDbEntity
8
0
100
AcDbSpline
70
1064
71
3
72
20
73
16
74
0
42
0.000000001
43
0.0000000001
44
0.0000000001
40
0
40
0
40
0
40
0
40
0.20000000000000001
40
0.20000000000000001
40
0.20000000000000001
40
0.20000001000000001
40
0.40000000000000002
40
0.40000000000000002
40
0.40000000000000002
40
0.40000001000000018
40
0.59999999999999998
40
0.59999999999999998
40
0.59999999999999998
40
0.60000001000000025
40
1
40
1
40
1
40
1
10
-233.149599956657
20
-51.185907148471458
30
0
10
-233.149599956657
20
-48.555607148471466
30
0
10
-231.01739995665699
20
-46.423407148471455
30
0
10
-228.38709995665698
20
-46.423407148471455
30
0
10
-228.38709995665698
20
-46.423407148471455
30
0
10
-225.75679995665695
20
-46.423407148471455
30
0
10
-223.62459995665699
20
-48.555607148471466
30
0
10
-223.62459995665699
20
-51.185907148471458
30
0
10
-223.62459995665699
20
-51.185907148471458
30
0
10
-223.62459995665699
20
-53.816207148471484
30
0
10
-225.75679995665695
20
-55.948407148471489
30
0
10
-228.38709995665698
20
-55.948407148471489
30
0
10
-228.38709995665698
20
-55.948407148471489
30
0
10
-231.01739995665699
20
-55.948407148471489
30
0
10
-233.149599956657
20
-53.816207148471484
30
0
10
-233.149599956657
20
-51.185907148471458
30
0
0
SPLINE
5
505
100
AcDbEntity
8
0
100
AcDbSpline
70
1064
71
3
72
20
73
16
74
0
42
0.000000001
43
0.0000000001
44
0.0000000001
40
0
40
0
40
0
40
0
40
0.20000000000000001
40
0.20000000000000001
40
0.20000000000000001
40
0.20000001000000001
40
0.40000000000000002
40
0.40000000000000002
40
0.40000000000000002
40
0.40000001000000018
40
0.59999999999999998
40
0.59999999999999998
40
0.59999999999999998
40
0.60000001000000025
40
1
40
1
40
1
40
1
10
-233.149599956657
20
15.666892851528571
30
0
10
-233.149599956657
20
18.297192851528582
30
0
10
-231.01739995665699
20
20.429392851528583
30
0
10
-228.38709995665698
20
20.429392851528583
30
0
10
-228.38709995665698
20
20.429392851528583
30
0
10
-225.75679995665695
20
20.429392851528583
30
0
10
-223.62459995665699
20
18.297192851528582
30
0
10
-223.62459995665699
20
15.666892851528571
30
0
10
-223.62459995665699
20
15.666892851528571
30
0
10
-223.62459995665699
20
13.036592851528459
30
0
10
-225.75679995665695
20
10.90439285152857
30
0
10
-228.38709995665698
20
10.90439285152857
30
0
10
-228.38709995665698
20
10.90439285152857
30
0
10
-231.01739995665699
20
10.90439285152857
30
0
10
-233.149599956657
20
13.036592851528459
30
0
10
-233.149599956657
20
15.666892851528571
30
0
0
LINE
5
506
100
AcDbEntity
8
0
100
AcDbLine
10
-272.48255656850489
20
34.890492851528549
30
0
11
-272.48258726505702
21
51.94031191777885
31
0
0
LINE
5
507
100
AcDbEntity
8
0
100
AcDbLine
10
52.628212293340233
20
102.19214467924019
30
0
11
52.628212293339878
21
-97.807855320759458
31
0
0
LINE
5
508
100
AcDbEntity
8
0
100
AcDbLine
10
198.42785042583986
20
102.1921626841922
30
0
11
198.42785042584148
21
-97.80783731580749
31
0
0
LWPOLYLINE
5
509
100
AcDbEntity
8
0
100
AcDbPolyline
90
4
70
1
43
0.0
10
132.12756983607983
20
102.19213198764018
10
132.12798672510061
20
105.39217537579221
10
144.92803149957768
20
105.39217537579221
10
144.92803194962821
20
102.19213198764018
0
LWPOLYLINE
5
510
100
AcDbEntity
8
0
100
AcDbPolyline
90
4
70
1
43
0.0
10
158.12806313130008
20
105.39217537579221
10
178.17803135958968
20
105.39217537579221
10
178.17803135958968
20
102.19213198764018
10
158.1279158594605
20
102.19213198764018
0
LWPOLYLINE
5
511
100
AcDbEntity
8
0
100
AcDbPolyline
90
4
70
1
43
0.0
10
72.878031359590466
20
105.39217537579211
10
92.927981128977351
20
105.39217537579211
10
92.92809032018917
20
102.19213198764018
10
72.878031359590466
20
102.19217537579229
0
LWPOLYLINE
5
512
100
AcDbEntity
8
0
100
AcDbPolyline
90
4
70
1
43
0.0
10
106.12801662237351
20
102.19213198764018
10
106.1280255000416
20
105.39217537579211
10
118.92813550927698
20
105.39217537579211
10
118.92837058539529
20
102.19213198764018
0
LINE
5
513
100
AcDbEntity
8
0
100
AcDbLine
10
72.878031359590466
20
102.19217537579229
30
0
11
72.878031359590466
21
105.39217537579211
31
0
0
LINE
5
514
100
AcDbEntity
8
0
100
AcDbLine
10
72.878031359590466
20
102.19217537579229
30
0
11
72.878031359590466
21
102.52740377172057
31
0
0
LINE
5
515
100
AcDbEntity
8
0
100
AcDbLine
10
92.928162287542648
20
102.52740377172053
30
0
11
92.928146859719789
21
102.19217537579229
31
0
0
LINE
5
516
100
AcDbEntity
8
0
100
AcDbLine
10
49.428048508062126
20
157.99217533244911
30
0
11
52.628048508062129
21
157.99217533244911
31
0
0
LINE
5
517
100
AcDbEntity
8
0
100
AcDbLine
10
49.428031359590662
20
116.0922263337485
30
0
11
49.428031359590683
21
130.19215265203232
31
0
0
LINE
5
518
100
AcDbEntity
8
0
100
AcDbLine
10
106.128031219603
20
196.49204367574322
30
0
11
118.92807599408009
21
196.49204367574322
31
0
0
LINE
5
519
100
AcDbEntity
8
0
100
AcDbLine
10
49.428048508062126
20
157.99217533244911
30
0
11
52.628048508062129
21
157.99217533244911
31
0
0
LINE
5
520
100
AcDbEntity
8
0
100
AcDbLine
10
-2.1826000000000167
20
130.65169177241611
30
0
11
-26.632600000000028
21
130.65039304908484
31
0
0
LINE
5
521
100
AcDbEntity
8
0
100
AcDbLine
10
72.878031359590864
20
196.49204367574322
30
0
11
92.927999587880521
21
196.49204367574322
31
0
0
LINE
5
522
100
AcDbEntity
8
0
100
AcDbLine
10
-86.882884805226226
20
127.45194348986304
30
0
11
-99.681774577982409
21
127.45194348986304
31
0
0
LINE
5
523
100
AcDbEntity
8
0
100
AcDbLine
10
201.62785042584051
20
157.99217533244919
30
0
11
198.42785042584052
21
157.99217533244919
31
0
0
LINE
5
524
100
AcDbEntity
8
0
100
AcDbLine
10
158.12808159020341
20
196.49204367574328
30
0
11
178.17803135959022
21
196.49204367574328
31
0
0
LINE
5
525
100
AcDbEntity
8
0
100
AcDbLine
10
-202.78260000000012
20
-90.659490000000034
30
0
11
-216.68263194084329
21
-90.659490000000034
31
0
0
LINE
5
526
100
AcDbEntity
8
0
100
AcDbLine
10
-269.28258726505697
20
55.140311917778853
30
0
11
-258.58259995665713
21
55.140311917778853
31
0
0
LINE
5
527
100
AcDbEntity
8
0
100
AcDbLine
10
-520.3825132493206
20
116.55194349011944
30
0
11
-520.3825132493206
21
102.85190119451032
31
0
0
LINE
5
528
100
AcDbEntity
8
0
100
AcDbLine
10
-523.58251324932064
20
116.55194349011953
30
0
11
-520.3825132493206
21
116.55194349011944
31
0
0
LINE
5
529
100
AcDbEntity
8
0
100
AcDbLine
10
-5.3826000000000374
20
102.85190117417883
30
0
11
-5.3826000000000285
21
116.5518599815792
31
0
0
LINE
5
530
100
AcDbEntity
8
0
100
AcDbLine
10
-243.48259999999999
20
130.6511737105956
30
0
11
-243.4826364259479
21
127.45194348833392
31
0
0
LINE
5
531
100
AcDbEntity
8
0
100
AcDbLine
10
118.92807599408009
20
196.49204367574322
30
0
11
118.92849288310089
21
199.69208706389534
31
0
0
LINE
5
532
100
AcDbEntity
8
0
100
AcDbLine
10
-230.28261733216527
20
127.45194348833392
30
0
11
-230.28269957831623
21
130.65194348833393
31
0
0
LINE
5
533
100
AcDbEntity
8
0
100
AcDbLine
10
-308.28273632706589
20
127.45194348833392
30
0
11
-308.28431296166008
21
130.65194348833393
31
0
0
LINE
5
534
100
AcDbEntity
8
0
100
AcDbLine
10
52.628048508062449
20
199.69208706389534
30
0
11
72.878031359590864
21
199.69208706389534
31
0
0
LINE
5
535
100
AcDbEntity
8
0
100
AcDbLine
10
49.428083871011111
20
143.89217533244909
30
0
11
49.428048508062126
21
157.99217533244911
31
0
0
LINE
5
536
100
AcDbEntity
8
0
100
AcDbLine
10
-282.28259953727388
20
127.45194348833392
30
0
11
-282.2826
21
130.65194228163381
31
0
0
LINE
5
537
100
AcDbEntity
8
0
100
AcDbLine
10
-216.68259995665696
20
55.140311917778853
30
0
11
-202.78259995891108
21
55.140311917778853
31
0
0
LINE
5
538
100
AcDbEntity
8
0
100
AcDbLine
10
198.42785042584052
20
130.19217533244921
30
0
11
201.62799277348461
21
130.19217533244921
31
0
0
LINE
5
539
100
AcDbEntity
8
0
100
AcDbLine
10
158.12797239899163
20
199.69208706389534
30
0
11
158.12808159020341
21
196.49204367574328
31
0
0
LINE
5
540
100
AcDbEntity
8
0
100
AcDbLine
10
-478.0825999999999
20
130.65183860696612
30
0
11
-478.0825999999999
21
127.45194349011945
31
0
0
LINE
5
541
100
AcDbEntity
8
0
100
AcDbLine
10
-523.58257321398241
20
88.751943490119487
30
0
11
-520.3825132493206
21
88.751922612587592
31
0
0
LINE
5
542
100
AcDbEntity
8
0
100
AcDbLine
10
-523.58259999999996
20
102.85185285295712
30
0
11
-523.58257321398241
21
88.751943490119487
31
0
0
LINE
5
543
100
AcDbEntity
8
0
100
AcDbLine
10
-523.58259999999996
20
190.88651251578824
30
0
11
-523.58259999999996
21
204.98650999827518
31
0
0
LINE
5
544
100
AcDbEntity
8
0
100
AcDbLine
10
-269.48260045800828
20
127.45194348833392
30
0
11
-282.28259953727388
21
127.45194348833392
31
0
0
LINE
5
545
100
AcDbEntity
8
0
100
AcDbLine
10
-73.682760582192813
20
127.45194348986304
30
0
11
-73.683095000648834
21
130.65194348986304
31
0
0
LINE
5
546
100
AcDbEntity
8
0
100
AcDbLine
10
-499.13312793761639
20
127.45194349011945
30
0
11
-499.13312793761639
21
130.65194349011944
31
0
0
LINE
5
547
100
AcDbEntity
8
0
100
AcDbLine
10
-2.1825999999999501
20
60.951943490379705
30
0
11
-2.1826000000000167
21
75.051933408033491
31
0
0
LINE
5
548
100
AcDbEntity
8
0
100
AcDbLine
10
-5.3826000000000285
20
116.5518599815792
30
0
11
-2.1826867763283087
21
116.55194348986305
31
0
0
LINE
5
549
100
AcDbEntity
8
0
100
AcDbLine
10
-216.68259995665696
20
58.34046605937548
30
0
11
-216.68259995665696
21
55.140311917778853
31
0
0
LINE
5
550
100
AcDbEntity
8
0
100
AcDbLine
10
-520.3825132493206
20
88.751922612587592
30
0
11
-520.3825132493206
21
75.051942315318556
31
0
0
LINE
5
551
100
AcDbEntity
8
0
100
AcDbLine
10
178.17803135959022
20
196.49204367574328
30
0
11
178.17803135959022
21
199.69204367574321
31
0
0
LINE
5
552
100
AcDbEntity
8
0
100
AcDbLine
10
198.42785042584052
20
157.99217533244919
30
0
11
201.62785042584051
21
157.99217533244919
31
0
0
LINE
5
553
100
AcDbEntity
8
0
100
AcDbLine
10
-520.3825132493206
20
102.85190119451032
30
0
11
-523.58259999999996
21
102.85185285295712
31
0
0
LINE
5
554
100
AcDbEntity
8
0
100
AcDbLine
10
-256.28260288593032
20
127.45194348833392
30
0
11
-256.2826147304612
21
130.65194348833393
31
0
0
LINE
5
555
100
AcDbEntity
8
0
100
AcDbLine
10
-499.13312793761639
20
130.65194349011944
30
0
11
-523.58259999999996
21
130.65169183962934
31
0
0
LINE
5
556
100
AcDbEntity
8
0
100
AcDbLine
10
-2.1826000000000079
20
102.85185281248964
30
0
11
-5.3826000000000374
21
102.85190117417883
31
0
0
LINE
5
557
100
AcDbEntity
8
0
100
AcDbLine
10
-5.3826000000000374
20
75.05193878501801
30
0
11
-5.3826000000000285
21
88.751922598999826
31
0
0
LINE
5
558
100
AcDbEntity
8
0
100
AcDbLine
10
-243.4826364259479
20
127.45194348833392
30
0
11
-256.28260288593032
21
127.45194348833392
31
0
0
LINE
5
559
100
AcDbEntity
8
0
100
AcDbLine
10
-47.682600000000015
20
130.65183858678421
30
0
11
-60.882600000000018
21
130.65061336896923
31
0
0
LINE
5
560
100
AcDbEntity
8
0
100
AcDbLine
10
-2.1826867763283264
20
149.38650999853348
30
0
11
-2.1826000000000345
21
135.28676171598028
31
0
0
LINE
5
561
100
AcDbEntity
8
0
100
AcDbLine
10
-499.13312793761639
20
138.48650999827521
30
0
11
-499.13312793761639
21
135.28650999827519
31
0
0
LINE
5
562
100
AcDbEntity
8
0
100
AcDbLine
10
-499.13312793761639
20
135.28650999827519
30
0
11
-523.58259999999996
21
135.28676164876538
31
0
0
LINE
5
563
100
AcDbEntity
8
0
100
AcDbLine
10
-217.48260000000002
20
130.6519434825162
30
0
11
-217.48274313128218
21
127.45194348833392
31
0
0
LINE
5
564
100
AcDbEntity
8
0
100
AcDbLine
10
-269.48259999999999
20
135.28651120462061
30
0
11
-269.48260045800828
21
138.48651000006069
31
0
0
LINE
5
565
100
AcDbEntity
8
0
100
AcDbLine
10
-217.48274313128218
20
127.45194348833392
30
0
11
-230.28261733216527
21
127.45194348833392
31
0
0
LINE
5
566
100
AcDbEntity
8
0
100
AcDbLine
10
-523.58259999999996
20
130.65169183962934
30
0
11
-523.58251324932064
21
116.55194349011953
31
0
0
LINE
5
567
100
AcDbEntity
8
0
100
AcDbLine
10
-60.882600000000039
20
138.48650999853348
30
0
11
-73.682760582192827
21
138.48650999853348
31
0
0
LINE
5
568
100
AcDbEntity
8
0
100
AcDbLine
10
-478.0825999999999
20
127.45194349011945
30
0
11
-499.13312793761639
21
127.45194349011945
31
0
0
LINE
5
569
100
AcDbEntity
8
0
100
AcDbLine
10
-230.28269957831628
20
135.2865100000607
30
0
11
-243.4826000000001
21
135.28727977779911
31
0
0
LINE
5
570
100
AcDbEntity
8
0
100
AcDbLine
10
-217.48260000000002
20
135.2865100058784
30
0
11
-217.48274313128218
21
138.48651000006069
31
0
0
LINE
5
571
100
AcDbEntity
8
0
100
AcDbLine
10
-282.2826
20
130.65194228163381
30
0
11
-295.48258525384347
21
130.65194348833393
31
0
0
LINE
5
572
100
AcDbEntity
8
0
100
AcDbLine
10
-452.08259999999984
20
130.65177021765723
30
0
11
-452.08310445524637
21
127.45194349011945
31
0
0
LINE
5
573
100
AcDbEntity
8
0
100
AcDbLine
10
-426.08332908023965
20
127.45194349011945
30
0
11
-438.88279094260923
21
127.45194349011945
31
0
0
LINE
5
574
100
AcDbEntity
8
0
100
AcDbLine
10
-2.1825999999999679
20
204.98650999801691
30
0
11
-2.1826000000000345
21
190.88652008036291
31
0
0
LINE
5
575
100
AcDbEntity
8
0
100
AcDbLine
10
-2.1826867763283087
20
116.55194348986305
30
0
11
-2.1826000000000167
21
130.65169177241611
31
0
0
LINE
5
576
100
AcDbEntity
8
0
100
AcDbLine
10
-5.3826000000000462
20
149.38659350681715
30
0
11
-2.1826867763283264
21
149.38650999853348
31
0
0
LINE
5
577
100
AcDbEntity
8
0
100
AcDbLine
10
-2.1826000000000345
20
190.88652008036291
30
0
11
-5.3826000000000462
21
190.88651470337857
31
0
0
LINE
5
578
100
AcDbEntity
8
0
100
AcDbLine
10
-464.88312968724102
20
130.65194349011944
30
0
11
-478.0825999999999
21
130.65183860696612
31
0
0
LINE
5
579
100
AcDbEntity
8
0
100
AcDbLine
10
-86.882599999999996
20
130.65081694178883
30
0
11
-86.882884805226226
21
127.45194348986304
31
0
0
LINE
5
580
100
AcDbEntity
8
0
100
AcDbLine
10
-2.18262680027971
20
88.751943489863095
30
0
11
-2.1826000000000079
21
102.85185281248964
31
0
0
LINE
5
581
100
AcDbEntity
8
0
100
AcDbLine
10
-426.08259999999996
20
130.65194347591373
30
0
11
-426.08332908023965
21
127.45194349011945
31
0
0
LINE
5
582
100
AcDbEntity
8
0
100
AcDbLine
10
-269.48259999999999
20
130.65194228377391
30
0
11
-269.48260045800828
21
127.45194348833392
31
0
0
LINE
5
583
100
AcDbEntity
8
0
100
AcDbLine
10
-230.28269957831623
20
130.65194348833393
30
0
11
-243.48259999999999
21
130.6511737105956
31
0
0
LINE
5
584
100
AcDbEntity
8
0
100
AcDbLine
10
-26.632599999999993
20
127.45194348986304
30
0
11
-47.682600000000015
21
127.45194348986304
31
0
0
LINE
5
585
100
AcDbEntity
8
0
100
AcDbLine
10
-452.08310445524637
20
127.45194349011945
30
0
11
-464.88271474262518
21
127.45194349011945
31
0
0
LINE
5
586
100
AcDbEntity
8
0
100
AcDbLine
10
-523.58259999999996
20
163.08660063543761
30
0
11
-523.58257321398241
21
177.18650999827517
31
0
0
LINE
5
587
100
AcDbEntity
8
0
100
AcDbLine
10
-295.48258525384347
20
130.65194348833393
30
0
11
-295.48259861193765
21
127.45194348833392
31
0
0
LINE
5
588
100
AcDbEntity
8
0
100
AcDbLine
10
-47.682600000000036
20
138.48650999853348
30
0
11
-47.682600000000036
21
135.28661490161227
31
0
0
LINE
5
589
100
AcDbEntity
8
0
100
AcDbLine
10
-438.88344933084505
20
130.65194349011944
30
0
11
-452.08259999999984
21
130.65177021765723
31
0
0
LINE
5
590
100
AcDbEntity
8
0
100
AcDbLine
10
-295.48259861193765
20
127.45194348833392
30
0
11
-308.28273632706589
21
127.45194348833392
31
0
0
LINE
5
591
100
AcDbEntity
8
0
100
AcDbLine
10
-321.48258067537927
20
127.45194348833392
30
0
11
-334.28259999999995
21
127.45194348833392
31
0
0
LINE
5
592
100
AcDbEntity
8
0
100
AcDbLine
10
-321.48250038090691
20
130.65194348833393
30
0
11
-321.48258067537927
21
127.45194348833392
31
0
0
LINE
5
593
100
AcDbEntity
8
0
100
AcDbLine
10
-520.3825132493206
20
177.18653087580714
30
0
11
-520.3825132493206
21
190.88651117307606
31
0
0
LINE
5
594
100
AcDbEntity
8
0
100
AcDbLine
10
-26.632600000000028
20
130.65039304908484
30
0
11
-26.632599999999993
21
127.45194348986304
31
0
0
LINE
5
595
100
AcDbEntity
8
0
100
AcDbLine
10
-334.28259999999995
20
127.45194348833392
30
0
11
-334.28259999999995
21
130.6519434823669
31
0
0
LINE
5
596
100
AcDbEntity
8
0
100
AcDbLine
10
-26.632600000000011
20
138.48650999853348
30
0
11
-47.682600000000036
21
138.48650999853348
31
0
0
LINE
5
597
100
AcDbEntity
8
0
100
AcDbLine
10
-73.683095000648834
20
130.65194348986304
30
0
11
-86.882599999999996
21
130.65081694178883
31
0
0
LINE
5
598
100
AcDbEntity
8
0
100
AcDbLine
10
-308.28431296166008
20
130.65194348833393
30
0
11
-321.48250038090691
21
130.65194348833393
31
0
0
LINE
5
599
100
AcDbEntity
8
0
100
AcDbLine
10
-5.3826000000000285
20
88.751922598999826
30
0
11
-2.18262680027971
21
88.751943489863095
31
0
0
LINE
5
600
100
AcDbEntity
8
0
100
AcDbLine
10
-321.48250038090691
20
135.2865100000607
30
0
11
-321.48258067537927
21
138.48651000006069
31
0
0
LINE
5
601
100
AcDbEntity
8
0
100
AcDbLine
10
-438.88279094260923
20
127.45194349011945
30
0
11
-438.88344933084505
21
130.65194349011944
31
0
0
LINE
5
602
100
AcDbEntity
8
0
100
AcDbLine
10
-464.88271474262518
20
127.45194349011945
30
0
11
-464.88312968724102
21
130.65194349011944
31
0
0
LINE
5
603
100
AcDbEntity
8
0
100
AcDbLine
10
-60.882600000000018
20
130.65061336896923
30
0
11
-60.882600000000018
21
127.45194348986304
31
0
0
LINE
5
604
100
AcDbEntity
8
0
100
AcDbLine
10
-2.1826000000000167
20
75.051933408033491
30
0
11
-5.3826000000000374
21
75.05193878501801
31
0
0
LINE
5
605
100
AcDbEntity
8
0
100
AcDbLine
10
-26.632600000000046
20
135.28806043931149
30
0
11
-26.632600000000011
21
138.48650999853348
31
0
0
LINE
5
606
100
AcDbEntity
8
0
100
AcDbLine
10
-86.882884805226226
20
138.48650999853348
30
0
11
-99.681774577982452
21
138.48650999853348
31
0
0
LINE
5
607
100
AcDbEntity
8
0
100
AcDbLine
10
-5.3826000000000462
20
190.88651470337857
30
0
11
-5.3826000000000462
21
177.18653088939669
31
0
0
LINE
5
608
100
AcDbEntity
8
0
100
AcDbLine
10
-256.2826147304612
20
130.65194348833393
30
0
11
-269.48259999999999
21
130.65194228377391
31
0
0
LINE
5
609
100
AcDbEntity
8
0
100
AcDbLine
10
-308.28431296166008
20
135.2865100000607
30
0
11
-321.48250038090691
21
135.2865100000607
31
0
0
LINE
5
610
100
AcDbEntity
8
0
100
AcDbLine
10
-99.681774577982409
20
127.45194348986304
30
0
11
-99.682600000000008
21
130.65194347542433
31
0
0
LINE
5
611
100
AcDbEntity
8
0
100
AcDbLine
10
-282.2826
20
135.28651120676079
30
0
11
-295.48258525384347
21
135.2865100000607
31
0
0
LINE
5
612
100
AcDbEntity
8
0
100
AcDbLine
10
-60.882600000000018
20
127.45194348986304
30
0
11
-73.682760582192813
21
127.45194348986304
31
0
0
LINE
5
613
100
AcDbEntity
8
0
100
AcDbLine
10
-295.48258525384347
20
135.2865100000607
30
0
11
-295.48259861193765
21
138.48651000006069
31
0
0
LINE
5
614
100
AcDbEntity
8
0
100
AcDbLine
10
-520.3825132493206
20
75.051942315318556
30
0
11
-523.58259999999996
21
75.051940972606488
31
0
0
LINE
5
615
100
AcDbEntity
8
0
100
AcDbLine
10
-47.682600000000015
20
127.45194348986304
30
0
11
-47.682600000000015
21
130.65183858678421
31
0
0
LINE
5
616
100
AcDbEntity
8
0
100
AcDbLine
10
-523.58257321398241
20
177.18650999827517
30
0
11
-520.3825132493206
21
177.18653087580714
31
0
0
LINE
5
617
100
AcDbEntity
8
0
100
AcDbLine
10
-478.0825999999999
20
135.28661488142831
30
0
11
-478.0825999999999
21
138.48650999827521
31
0
0
LINE
5
618
100
AcDbEntity
8
0
100
AcDbLine
10
-5.3826000000000462
20
177.18653088939669
30
0
11
-2.1826268002797278
21
177.18650999853344
31
0
0
LINE
5
619
100
AcDbEntity
8
0
100
AcDbLine
10
-464.88271474262524
20
138.48650999827521
30
0
11
-464.88312968724102
21
135.28650999827519
31
0
0
LINE
5
620
100
AcDbEntity
8
0
100
AcDbLine
10
-444.19441587520498
20
-325.50799470422282
30
0
11
-444.19441587520498
21
-322.30889951035408
31
0
0
LINE
5
621
100
AcDbEntity
8
0
100
AcDbLine
10
-47.682600000000036
20
135.28661490161227
30
0
11
-60.882600000000039
21
135.28784011942739
31
0
0
LINE
5
622
100
AcDbEntity
8
0
100
AcDbLine
10
-520.3825132493206
20
149.38650999827519
30
0
11
-520.3825132493206
21
163.08655229388407
31
0
0
LINE
5
623
100
AcDbEntity
8
0
100
AcDbLine
10
-2.1826000000000256
20
163.08660067590688
30
0
11
-5.3826000000000462
21
163.08655231421767
31
0
0
LINE
5
624
100
AcDbEntity
8
0
100
AcDbLine
10
-523.58259999999996
20
135.28676164876538
30
0
11
-523.58251324932064
21
149.38650999827519
31
0
0
LINE
5
625
100
AcDbEntity
8
0
100
AcDbLine
10
-452.08310445524637
20
138.48650999827521
30
0
11
-464.88271474262524
21
138.48650999827521
31
0
0
LINE
5
626
100
AcDbEntity
8
0
100
AcDbLine
10
-287.19440112903982
20
-325.50915662068735
30
0
11
-287.19440899610572
21
-322.30889951035408
31
0
0
LINE
5
627
100
AcDbEntity
8
0
100
AcDbLine
10
-90.989826447226676
20
-322.306790396476
30
0
11
-90.989826447226704
21
-325.50702579680154
31
0
0
LINE
5
628
100
AcDbEntity
8
0
100
AcDbLine
10
-60.882600000000039
20
135.28784011942739
30
0
11
-60.882600000000039
21
138.48650999853348
31
0
0
LINE
5
629
100
AcDbEntity
8
0
100
AcDbLine
10
-438.88344933084505
20
135.28650999827519
30
0
11
-452.08259999999984
21
135.28668327073748
31
0
0
LINE
5
630
100
AcDbEntity
8
0
100
AcDbLine
10
-426.08259999999996
20
135.2865100124809
30
0
11
-426.08332908023965
21
138.48650999827521
31
0
0
LINE
5
631
100
AcDbEntity
8
0
100
AcDbLine
10
-99.681774577982452
20
138.48650999853348
30
0
11
-99.682600000000022
21
135.28651001297217
31
0
0
LINE
5
632
100
AcDbEntity
8
0
100
AcDbLine
10
-5.3826000000000462
20
163.08655231421767
30
0
11
-5.3826000000000462
21
149.38659350681715
31
0
0
LINE
5
633
100
AcDbEntity
8
0
100
AcDbLine
10
-104.18971902207247
20
-325.50704750680922
30
0
11
-104.18977632009188
21
-322.306790396476
31
0
0
LINE
5
634
100
AcDbEntity
8
0
100
AcDbLine
10
-525.49441587520494
20
-229.80915662068728
30
0
11
-525.49441587520494
21
-217.00897772742553
31
0
0
LINE
5
635
100
AcDbEntity
8
0
100
AcDbLine
10
-528.69410676236657
20
-229.80915662068728
30
0
11
-525.49441587520494
21
-229.80915662068728
31
0
0
LINE
5
636
100
AcDbEntity
8
0
100
AcDbLine
10
-528.69434734382583
20
-196.5591566206873
30
0
11
-525.49441587520494
21
-196.55910232968549
31
0
0
LINE
5
637
100
AcDbEntity
8
0
100
AcDbLine
10
-525.49441587520494
20
-255.80918695435838
30
0
11
-525.49441587520494
21
-243.00927247716714
31
0
0
LINE
5
638
100
AcDbEntity
8
0
100
AcDbLine
10
-235.19441587520532
20
-322.30889951035408
30
0
11
-247.9945000292918
21
-322.30889951035408
31
0
0
LINE
5
639
100
AcDbEntity
8
0
100
AcDbLine
10
-64.989933790962283
20
-325.50704750680922
30
0
11
-78.188144825046393
21
-325.50704750680922
31
0
0
LINE
5
640
100
AcDbEntity
8
0
100
AcDbLine
10
-528.69441587520498
20
-302.25902521840089
30
0
11
-525.49441587520494
21
-302.25902521840089
31
0
0
LINE
5
641
100
AcDbEntity
8
0
100
AcDbLine
10
-464.88312968724102
20
135.28650999827519
30
0
11
-478.0825999999999
21
135.28661488142831
31
0
0
LINE
5
642
100
AcDbEntity
8
0
100
AcDbLine
10
-438.88279094260923
20
138.48650999827521
30
0
11
-438.88344933084505
21
135.28650999827519
31
0
0
LINE
5
643
100
AcDbEntity
8
0
100
AcDbLine
10
-2.1826268002797278
20
177.18650999853344
30
0
11
-2.1826000000000256
21
163.08660067590688
31
0
0
LINE
5
644
100
AcDbEntity
8
0
100
AcDbLine
10
-525.49441587520494
20
-217.00897772742553
30
0
11
-528.69441587520498
21
-217.00877326577211
31
0
0
LINE
5
645
100
AcDbEntity
8
0
100
AcDbLine
10
-256.28260288593032
20
138.48651000006069
30
0
11
-256.2826147304612
21
135.2865100000607
31
0
0
LINE
5
646
100
AcDbEntity
8
0
100
AcDbLine
10
-73.682760582192827
20
138.48650999853348
30
0
11
-73.683095000648848
21
135.28650999853346
31
0
0
LINE
5
647
100
AcDbEntity
8
0
100
AcDbLine
10
-308.28273632706589
20
138.48651000006069
30
0
11
-308.28431296166008
21
135.2865100000607
31
0
0
LINE
5
648
100
AcDbEntity
8
0
100
AcDbLine
10
-221.9897763012109
20
-322.30889951035408
30
0
11
-221.98447301748601
21
-325.50915662068735
31
0
0
LINE
5
649
100
AcDbEntity
8
0
100
AcDbLine
10
-525.49441587520494
20
-243.00927247716714
30
0
11
-528.69426168152154
21
-243.00915662068729
31
0
0
LINE
5
650
100
AcDbEntity
8
0
100
AcDbLine
10
-321.48258067537927
20
138.48651000006069
30
0
11
-334.28259999999995
21
138.48651000006069
31
0
0
LINE
5
651
100
AcDbEntity
8
0
100
AcDbLine
10
-269.48260045800828
20
138.48651000006069
30
0
11
-282.28259953727388
21
138.48651000006069
31
0
0
LINE
5
652
100
AcDbEntity
8
0
100
AcDbLine
10
-295.48259861193765
20
138.48651000006069
30
0
11
-308.28273632706589
21
138.48651000006069
31
0
0
LINE
5
653
100
AcDbEntity
8
0
100
AcDbLine
10
-243.4826000000001
20
135.28727977779911
30
0
11
-243.4826364259479
21
138.48651000006069
31
0
0
LINE
5
654
100
AcDbEntity
8
0
100
AcDbLine
10
-282.28259953727388
20
138.48651000006069
30
0
11
-282.2826
21
135.28651120676079
31
0
0
LINE
5
655
100
AcDbEntity
8
0
100
AcDbLine
10
-230.28261733216527
20
138.48651000006069
30
0
11
-230.28269957831628
21
135.2865100000607
31
0
0
LINE
5
656
100
AcDbEntity
8
0
100
AcDbLine
10
-86.882600000000011
20
135.28763654660759
30
0
11
-86.882884805226226
21
138.48650999853348
31
0
0
LINE
5
657
100
AcDbEntity
8
0
100
AcDbLine
10
-520.3825132493206
20
163.08655229388407
30
0
11
-523.58259999999996
21
163.08660063543761
31
0
0
LINE
5
658
100
AcDbEntity
8
0
100
AcDbLine
10
-525.49441587520494
20
-196.55910232968549
30
0
11
-525.49441591903292
21
-176.50915769339761
31
0
0
LINE
5
659
100
AcDbEntity
8
0
100
AcDbLine
10
-478.0825999999999
20
138.48650999827521
30
0
11
-499.13312793761639
21
138.48650999827521
31
0
0
LINE
5
660
100
AcDbEntity
8
0
100
AcDbLine
10
-523.58251324932064
20
149.38650999827519
30
0
11
-520.3825132493206
21
149.38650999827519
31
0
0
LINE
5
661
100
AcDbEntity
8
0
100
AcDbLine
10
-256.2826147304612
20
135.2865100000607
30
0
11
-269.48259999999999
21
135.28651120462061
31
0
0
LINE
5
662
100
AcDbEntity
8
0
100
AcDbLine
10
-217.48274313128218
20
138.48651000006069
30
0
11
-230.28261733216527
21
138.48651000006069
31
0
0
LINE
5
663
100
AcDbEntity
8
0
100
AcDbLine
10
-73.683095000648848
20
135.28650999853346
30
0
11
-86.882600000000011
21
135.28763654660759
31
0
0
LINE
5
664
100
AcDbEntity
8
0
100
AcDbLine
10
-426.08332908023965
20
138.48650999827521
30
0
11
-438.88279094260923
21
138.48650999827521
31
0
0
LINE
5
665
100
AcDbEntity
8
0
100
AcDbLine
10
-243.4826364259479
20
138.48651000006069
30
0
11
-256.28260288593032
21
138.48651000006069
31
0
0
LINE
5
666
100
AcDbEntity
8
0
100
AcDbLine
10
-452.08259999999984
20
135.28668327073748
30
0
11
-452.08310445524637
21
138.48650999827521
31
0
0
LINE
5
667
100
AcDbEntity
8
0
100
AcDbLine
10
-2.1826000000000345
20
135.28676171598028
30
0
11
-26.632600000000046
21
135.28806043931149
31
0
0
LINE
5
668
100
AcDbEntity
8
0
100
AcDbLine
10
-520.3825132493206
20
190.88651117307606
30
0
11
-523.58259999999996
21
190.88651251578824
31
0
0
LINE
5
669
100
AcDbEntity
8
0
100
AcDbLine
10
-528.69441587520498
20
-217.00877326577211
30
0
11
-528.69434734382583
21
-196.5591566206873
31
0
0
LINE
5
670
100
AcDbEntity
8
0
100
AcDbLine
10
-334.28259999999995
20
138.48651000006069
30
0
11
-334.28259999999995
21
135.28651000602781
31
0
0
LINE
5
671
100
AcDbEntity
8
0
100
AcDbLine
10
-525.49441587520494
20
-322.30889951035408
30
0
11
-525.49441587520494
21
-302.25909531904961
31
0
0
LINE
5
672
100
AcDbEntity
8
0
100
AcDbLine
10
-325.99428983226409
20
-322.30889951035408
30
0
11
-325.9948137732186
21
-325.50915662068735
31
0
0
LINE
5
673
100
AcDbEntity
8
0
100
AcDbLine
10
-470.19435805255773
20
-322.30889951035408
30
0
11
-482.99441587520499
21
-322.30889951035408
31
0
0
LINE
5
674
100
AcDbEntity
8
0
100
AcDbLine
10
-504.44441587520492
20
-322.30889951035408
30
0
11
-525.49441587520494
21
-322.30889951035408
31
0
0
LINE
5
675
100
AcDbEntity
8
0
100
AcDbLine
10
-504.44441587520492
20
-325.50891589301443
30
0
11
-504.44441587520492
21
-322.30889951035408
31
0
0
LINE
5
676
100
AcDbEntity
8
0
100
AcDbLine
10
-482.99441587520499
20
-325.50894681440411
30
0
11
-504.44441587520492
21
-325.50891589301443
31
0
0
LINE
5
677
100
AcDbEntity
8
0
100
AcDbLine
10
-482.99441587520499
20
-322.30889951035408
30
0
11
-482.99441587520499
21
-325.50894681440411
31
0
0
LINE
5
678
100
AcDbEntity
8
0
100
AcDbLine
10
-528.69441587520498
20
-255.80922162215751
30
0
11
-525.49441587520494
21
-255.80918695435838
31
0
0
LINE
5
679
100
AcDbEntity
8
0
100
AcDbLine
10
-456.99429195587118
20
-325.50915662068735
30
0
11
-470.19429195587122
21
-325.50915662068735
31
0
0
LINE
5
680
100
AcDbEntity
8
0
100
AcDbLine
10
-52.189980596265961
20
-322.306790396476
30
0
11
-64.989876535542493
21
-322.306790396476
31
0
0
LINE
5
681
100
AcDbEntity
8
0
100
AcDbLine
10
-525.49441587520494
20
-302.25909531904961
30
0
11
-528.69441587520498
21
-302.25902521840089
31
0
0
LINE
5
682
100
AcDbEntity
8
0
100
AcDbLine
10
-456.99435806104765
20
-322.30889951035408
30
0
11
-456.99429195587118
21
-325.50915662068735
31
0
0
LINE
5
683
100
AcDbEntity
8
0
100
AcDbLine
10
-273.99441587520533
20
-322.30889951035408
30
0
11
-273.99441587520533
21
-325.50809750860287
31
0
0
LINE
5
684
100
AcDbEntity
8
0
100
AcDbLine
10
-528.6944062239553
20
-269.00915662068729
30
0
11
-528.69441587520498
21
-255.80922162215751
31
0
0
LINE
5
685
100
AcDbEntity
8
0
100
AcDbLine
10
-525.49441587520494
20
-281.80915388413928
30
0
11
-525.49441587520494
21
-269.01040011007069
31
0
0
LINE
5
686
100
AcDbEntity
8
0
100
AcDbLine
10
-247.9945000292918
20
-322.30889951035408
30
0
11
-247.9945962264016
21
-325.50915662068735
31
0
0
LINE
5
687
100
AcDbEntity
8
0
100
AcDbLine
10
-247.9945962264016
20
-325.50915662068735
30
0
11
-261.19441587520532
21
-325.50911137489379
31
0
0
LINE
5
688
100
AcDbEntity
8
0
100
AcDbLine
10
-528.69440081754033
20
-281.8091566206873
30
0
11
-525.49441587520494
21
-281.80915388413928
31
0
0
LINE
5
689
100
AcDbEntity
8
0
100
AcDbLine
10
-78.189041762269625
20
-322.306790396476
30
0
11
-90.989826447226676
21
-322.306790396476
31
0
0
LINE
5
690
100
AcDbEntity
8
0
100
AcDbLine
10
-30.739826447226704
20
-325.50679039647599
30
0
11
-52.189826447226665
21
-325.50679039647599
31
0
0
LINE
5
691
100
AcDbEntity
8
0
100
AcDbLine
10
-528.69441587520498
20
-302.25902521840089
30
0
11
-528.69440081754033
21
-281.8091566206873
31
0
0
LINE
5
692
100
AcDbEntity
8
0
100
AcDbLine
10
-430.99445356789596
20
-325.50915662068735
30
0
11
-444.19441587520498
21
-325.50799470422282
31
0
0
LINE
5
693
100
AcDbEntity
8
0
100
AcDbLine
10
-235.19441587520518
20
-325.50889959516678
30
0
11
-235.19441587520532
21
-322.30889951035408
31
0
0
LINE
5
694
100
AcDbEntity
8
0
100
AcDbLine
10
-261.19441587520532
20
-325.50911137489379
30
0
11
-261.19441587520532
21
-322.30889951035408
31
0
0
LINE
5
695
100
AcDbEntity
8
0
100
AcDbLine
10
-313.19410430360625
20
-325.50915662068735
30
0
11
-313.19464318550769
21
-322.30889951035408
31
0
0
LINE
5
696
100
AcDbEntity
8
0
100
AcDbLine
10
-339.19441587520515
20
-325.5072772174708
30
0
11
-339.19441587520515
21
-322.30889951035408
31
0
0
LINE
5
697
100
AcDbEntity
8
0
100
AcDbLine
10
-444.19441587520498
20
-322.30889951035408
30
0
11
-456.99435806104765
21
-322.30889951035408
31
0
0
LINE
5
698
100
AcDbEntity
8
0
100
AcDbLine
10
-470.19429195587122
20
-325.50915662068735
30
0
11
-470.19435805255773
21
-322.30889951035408
31
0
0
LINE
5
699
100
AcDbEntity
8
0
100
AcDbLine
10
-430.99443345848715
20
-322.30889951035408
30
0
11
-430.99445356789596
21
-325.50915662068735
31
0
0
LINE
5
700
100
AcDbEntity
8
0
100
AcDbLine
10
-313.19464318550769
20
-322.30889951035408
30
0
11
-325.99428983226409
21
-322.30889951035408
31
0
0
LINE
5
701
100
AcDbEntity
8
0
100
AcDbLine
10
-52.189826447226665
20
-325.50679039647599
30
0
11
-52.189980596265961
21
-322.306790396476
31
0
0
LINE
5
702
100
AcDbEntity
8
0
100
AcDbLine
10
-299.99555392801989
20
-325.50915662068735
30
0
11
-313.19410430360625
21
-325.50915662068735
31
0
0
LINE
5
703
100
AcDbEntity
8
0
100
AcDbLine
10
-221.98447301748601
20
-325.50915662068735
30
0
11
-235.19441587520518
21
-325.50889959516678
31
0
0
LINE
5
704
100
AcDbEntity
8
0
100
AcDbLine
10
-299.99488716657089
20
-322.30889951035408
30
0
11
-299.99555392801989
21
-325.50915662068735
31
0
0
LINE
5
705
100
AcDbEntity
8
0
100
AcDbLine
10
-90.989826447226704
20
-325.50702579680154
30
0
11
-104.18971902207247
21
-325.50704750680922
31
0
0
LINE
5
706
100
AcDbEntity
8
0
100
AcDbLine
10
-273.99441587520533
20
-325.50809750860287
30
0
11
-287.19440112903982
21
-325.50915662068735
31
0
0
LINE
5
707
100
AcDbEntity
8
0
100
AcDbLine
10
-30.739826447226704
20
-325.50679039647599
30
0
11
-30.739826447226704
21
-322.306790396476
31
0
0
LINE
5
708
100
AcDbEntity
8
0
100
AcDbLine
10
-261.19441587520532
20
-322.30889951035408
30
0
11
-273.99441587520533
21
-322.30889951035408
31
0
0
LINE
5
709
100
AcDbEntity
8
0
100
AcDbLine
10
-78.188144825046393
20
-325.50704750680922
30
0
11
-78.189041762269625
21
-322.306790396476
31
0
0
LINE
5
710
100
AcDbEntity
8
0
100
AcDbLine
10
-325.9948137732186
20
-325.50915662068735
30
0
11
-339.19441587520515
21
-325.5072772174708
31
0
0
LINE
5
711
100
AcDbEntity
8
0
100
AcDbLine
10
-287.19440899610572
20
-322.30889951035408
30
0
11
-299.99488716657089
21
-322.30889951035408
31
0
0
LINE
5
712
100
AcDbEntity
8
0
100
AcDbLine
10
-528.69426168152154
20
-243.00915662068729
30
0
11
-528.69410676236657
21
-229.80915662068728
31
0
0
LINE
5
713
100
AcDbEntity
8
0
100
AcDbLine
10
-64.989876535542493
20
-322.306790396476
30
0
11
-64.989933790962283
21
-325.50704750680922
31
0
0
LINE
5
714
100
AcDbEntity
8
0
100
AcDbLine
10
-30.739826447226704
20
-322.306790396476
30
0
11
-30.739826447226704
21
-325.50679039647599
31
0
0
LINE
5
715
100
AcDbEntity
8
0
100
AcDbLine
10
-6.4899038559236155
20
-196.55704750680917
30
0
11
-9.6899038559236157
21
-196.55704750680917
31
0
0
LINE
5
716
100
AcDbEntity
8
0
100
AcDbLine
10
-504.44441587520492
20
-173.30915769339759
30
0
11
-504.44441587520492
21
-176.50915769339761
31
0
0
LINE
5
717
100
AcDbEntity
8
0
100
AcDbLine
10
-525.49441587520494
20
-269.01040011007069
30
0
11
-528.6944062239553
21
-269.00915662068729
31
0
0
LINE
5
718
100
AcDbEntity
8
0
100
AcDbLine
10
-482.99443477121287
20
-176.50915769339761
30
0
11
-470.19448910017502
21
-176.50915769339761
31
0
0
LINE
5
719
100
AcDbEntity
8
0
100
AcDbLine
10
-78.189826447226693
20
-173.3074541765003
30
0
11
-64.989826447226719
21
-173.3071441329032
31
0
0
LINE
5
720
100
AcDbEntity
8
0
100
AcDbLine
10
-90.989826447226676
20
-173.30741349487761
30
0
11
-90.989826447226704
21
-176.50704857951951
31
0
0
LINE
5
721
100
AcDbEntity
8
0
100
AcDbLine
10
-235.19441587520532
20
-173.30915903408902
30
0
11
-221.99444904732422
21
-173.3091566206873
31
0
0
LINE
5
722
100
AcDbEntity
8
0
100
AcDbLine
10
-470.19441587520498
20
-173.3092637345587
30
0
11
-456.99441587520494
21
-173.30954263053499
31
0
0
LINE
5
723
100
AcDbEntity
8
0
100
AcDbLine
10
-325.99441587520516
20
-173.3091576879151
30
0
11
-325.99332279136769
21
-176.50915769339761
31
0
0
LINE
5
724
100
AcDbEntity
8
0
100
AcDbLine
10
-456.99441587520494
20
-173.30954263053499
30
0
11
-456.99407444830615
21
-176.50915769339761
31
0
0
LINE
5
725
100
AcDbEntity
8
0
100
AcDbLine
10
-504.44441587520492
20
-176.50915769339761
30
0
11
-504.44441587520492
21
-173.30915769339759
31
0
0
LINE
5
726
100
AcDbEntity
8
0
100
AcDbLine
10
-52.189797507694387
20
-173.3070475068092
30
0
11
-30.739826447226708
21
-173.30704777227172
31
0
0
LINE
5
727
100
AcDbEntity
8
0
100
AcDbLine
10
-6.4898458128060366
20
-281.80704750680923
30
0
11
-6.4898264472267382
21
-302.25689317259139
31
0
0
LINE
5
728
100
AcDbEntity
8
0
100
AcDbLine
10
-247.99441587520519
20
-173.31057728152348
30
0
11
-247.99440491522151
21
-176.50915769339761
31
0
0
LINE
5
729
100
AcDbEntity
8
0
100
AcDbLine
10
-430.99441587520494
20
-173.3092636797704
30
0
11
-430.99441587520516
21
-176.50915769339761
31
0
0
LINE
5
730
100
AcDbEntity
8
0
100
AcDbLine
10
-9.6899038559236157
20
-217.00685065862729
30
0
11
-9.6899038559236157
21
-229.8072551983368
31
0
0
LINE
5
731
100
AcDbEntity
8
0
100
AcDbLine
10
-104.18982644722668
20
-173.3071655902263
30
0
11
-90.989826447226676
21
-173.30741349487761
31
0
0
LINE
5
732
100
AcDbEntity
8
0
100
AcDbLine
10
-6.4898264472267382
20
-217.00662566307517
30
0
11
-9.6899038559236157
21
-217.00685065862729
31
0
0
LINE
5
733
100
AcDbEntity
8
0
100
AcDbLine
10
-64.989826447226719
20
-173.3071441329032
30
0
11
-64.989762405754718
21
-176.50704857951951
31
0
0
LINE
5
734
100
AcDbEntity
8
0
100
AcDbLine
10
-9.6899038559236157
20
-322.306790396476
30
0
11
-30.739826447226704
21
-322.306790396476
31
0
0
LINE
5
735
100
AcDbEntity
8
0
100
AcDbLine
10
-482.9944563669161
20
-173.3091566206873
30
0
11
-482.99443477121287
21
-176.50915769339761
31
0
0
LINE
5
736
100
AcDbEntity
8
0
100
AcDbLine
10
-9.6899038559236157
20
-269.00704750680922
30
0
11
-9.6899038559236157
21
-281.80704262547567
31
0
0
LINE
5
737
100
AcDbEntity
8
0
100
AcDbLine
10
-9.6899038559236157
20
-229.8072551983368
30
0
11
-6.4898264472267382
21
-229.80749259560639
31
0
0
LINE
5
738
100
AcDbEntity
8
0
100
AcDbLine
10
-247.99440491522151
20
-176.50915769339761
30
0
11
-235.19441587520532
21
-176.50915769339761
31
0
0
LINE
5
739
100
AcDbEntity
8
0
100
AcDbLine
10
-9.6899038559236157
20
-196.55698331001301
30
0
11
-6.4899038559236155
21
-196.55704750680917
31
0
0
LINE
5
740
100
AcDbEntity
8
0
100
AcDbLine
10
-30.739826447226733
20
-176.50704857951951
30
0
11
-9.6899038559236139
21
-176.50704857951951
31
0
0
LINE
5
741
100
AcDbEntity
8
0
100
AcDbLine
10
-261.19428335821618
20
-173.3091566206873
30
0
11
-247.99441587520519
21
-173.31057728152348
31
0
0
LINE
5
742
100
AcDbEntity
8
0
100
AcDbLine
10
-287.19377519508998
20
-173.3091566206873
30
0
11
-273.99509612802109
21
-173.3091566206873
31
0
0
LINE
5
743
100
AcDbEntity
8
0
100
AcDbLine
10
-64.989762405754718
20
-176.50704857951951
30
0
11
-52.189812942185689
21
-176.50704857951951
31
0
0
LINE
5
744
100
AcDbEntity
8
0
100
AcDbLine
10
-470.19448910017502
20
-176.50915769339761
30
0
11
-470.19441587520498
21
-173.3092637345587
31
0
0
LINE
5
745
100
AcDbEntity
8
0
100
AcDbLine
10
-6.4898264472267382
20
-302.25689317259139
30
0
11
-9.6899038559236157
21
-302.25780509480904
31
0
0
LINE
5
746
100
AcDbEntity
8
0
100
AcDbLine
10
-313.19443081714093
20
-176.50915769339761
30
0
11
-313.19441587520521
21
-173.3106165549853
31
0
0
LINE
5
747
100
AcDbEntity
8
0
100
AcDbLine
10
-104.18982644722668
20
-176.50704857951951
30
0
11
-104.18982644722668
21
-173.3071655902263
31
0
0
LINE
5
748
100
AcDbEntity
8
0
100
AcDbLine
10
-299.99456674071001
20
-173.3091566206873
30
0
11
-299.9939499187152
21
-176.50915769339761
31
0
0
LINE
5
749
100
AcDbEntity
8
0
100
AcDbLine
10
-6.4898264472267382
20
-229.80749259560639
30
0
11
-6.4899680076959481
21
-243.00704750680919
31
0
0
LINE
5
750
100
AcDbEntity
8
0
100
AcDbLine
10
-273.9945579629624
20
-176.50915769339761
30
0
11
-261.19435405507352
21
-176.50915769339761
31
0
0
LINE
5
751
100
AcDbEntity
8
0
100
AcDbLine
10
-287.19430723837968
20
-176.50915769339761
30
0
11
-287.19377519508998
21
-173.3091566206873
31
0
0
LINE
5
752
100
AcDbEntity
8
0
100
AcDbLine
10
-525.49441587520494
20
-176.50915769339761
30
0
11
-504.44441587520492
21
-176.50915769339761
31
0
0
LINE
5
753
100
AcDbEntity
8
0
100
AcDbLine
10
-9.6899038559236139
20
-176.50704857951951
30
0
11
-9.6899038559236157
21
-196.55698331001301
31
0
0
LINE
5
754
100
AcDbEntity
8
0
100
AcDbLine
10
-6.4898264472267382
20
-255.80710066364679
30
0
11
-6.4898331363139743
21
-269.00704750680922
31
0
0
LINE
5
755
100
AcDbEntity
8
0
100
AcDbLine
10
-6.4899680076959481
20
-243.00704750680919
30
0
11
-9.6899038559236157
21
-243.00715173880118
31
0
0
LINE
5
756
100
AcDbEntity
8
0
100
AcDbLine
10
-9.6899038559236157
20
-255.80707231239973
30
0
11
-6.4898264472267382
21
-255.80710066364679
31
0
0
LINE
5
757
100
AcDbEntity
8
0
100
AcDbLine
10
-52.189812942185689
20
-176.50704857951951
30
0
11
-52.189797507694387
21
-173.3070475068092
31
0
0
LINE
5
758
100
AcDbEntity
8
0
100
AcDbLine
10
-339.19441587520515
20
-176.50915769339761
30
0
11
-339.19441587520515
21
-173.30999392915481
31
0
0
LINE
5
759
100
AcDbEntity
8
0
100
AcDbLine
10
-261.19435405507352
20
-176.50915769339761
30
0
11
-261.19428335821618
21
-173.3091566206873
31
0
0
LINE
5
760
100
AcDbEntity
8
0
100
AcDbLine
10
-299.9939499187152
20
-176.50915769339761
30
0
11
-287.19430723837968
21
-176.50915769339761
31
0
0
LINE
5
761
100
AcDbEntity
8
0
100
AcDbLine
10
-273.99509612802109
20
-173.3091566206873
30
0
11
-273.9945579629624
21
-176.50915769339761
31
0
0
LINE
5
762
100
AcDbEntity
8
0
100
AcDbLine
10
-235.19441587520532
20
-176.50915769339761
30
0
11
-235.19441587520532
21
-173.30915903408902
31
0
0
LINE
5
763
100
AcDbEntity
8
0
100
AcDbLine
10
-9.6899038559236157
20
-281.80704262547567
30
0
11
-6.4898458128060366
21
-281.80704750680923
31
0
0
LINE
5
764
100
AcDbEntity
8
0
100
AcDbLine
10
-221.99515717001307
20
-325.50915662068735
30
0
11
-221.98447301748601
21
-325.50915662068735
31
0
0
LINE
5
765
100
AcDbEntity
8
0
100
AcDbLine
10
-6.4898331363139743
20
-269.00704750680922
30
0
11
-9.6899038559236157
21
-269.00704750680922
31
0
0
LINE
5
766
100
AcDbEntity
8
0
100
AcDbLine
10
-90.989826447226704
20
-176.50704857951951
30
0
11
-78.189826447226693
21
-176.50704857951951
31
0
0
LINE
5
767
100
AcDbEntity
8
0
100
AcDbLine
10
-313.19441587520521
20
-173.3106165549853
30
0
11
-299.99456674071001
21
-173.3091566206873
31
0
0
LINE
5
768
100
AcDbEntity
8
0
100
AcDbLine
10
-444.19441587520498
20
-176.50915769339761
30
0
11
-444.19441587520498
21
-173.30954273441191
31
0
0
LINE
5
769
100
AcDbEntity
8
0
100
AcDbLine
10
-9.6899038559236157
20
-243.00715173880118
30
0
11
-9.6899038559236157
21
-255.80707231239973
31
0
0
LINE
5
770
100
AcDbEntity
8
0
100
AcDbLine
10
-456.99407444830615
20
-176.50915769339761
30
0
11
-444.19441587520498
21
-176.50915769339761
31
0
0
LINE
5
771
100
AcDbEntity
8
0
100
AcDbLine
10
-78.189826447226693
20
-176.50704857951951
30
0
11
-78.189826447226693
21
-173.3074541765003
31
0
0
LINE
5
772
100
AcDbEntity
8
0
100
AcDbLine
10
-221.99444904732422
20
-173.3091566206873
30
0
11
-221.99443135552147
21
-176.50915769339761
31
0
0
LINE
5
773
100
AcDbEntity
8
0
100
AcDbLine
10
-9.6899038559236157
20
-302.25780509480904
30
0
11
-9.6899038559236157
21
-322.306790396476
31
0
0
LINE
5
774
100
AcDbEntity
8
0
100
AcDbLine
10
-339.19441587520515
20
-173.30999392915481
30
0
11
-325.99441587520516
21
-173.3091576879151
31
0
0
LINE
5
775
100
AcDbEntity
8
0
100
AcDbLine
10
-6.4899038559236155
20
-196.55704750680917
30
0
11
-6.4898264472267382
21
-217.00662566307517
31
0
0
LINE
5
776
100
AcDbEntity
8
0
100
AcDbLine
10
-30.739826447226708
20
-173.30704777227172
30
0
11
-30.739826447226733
21
-176.50704857951951
31
0
0
LINE
5
777
100
AcDbEntity
8
0
100
AcDbLine
10
-325.99332279136769
20
-176.50915769339761
30
0
11
-313.19443081714093
21
-176.50915769339761
31
0
0
LINE
5
778
100
AcDbEntity
8
0
100
AcDbLine
10
-444.19441587520498
20
-173.30954273441191
30
0
11
-430.99441587520494
21
-173.3092636797704
31
0
0
LINE
5
779
100
AcDbEntity
8
0
100
AcDbLine
10
-504.44441587520492
20
-173.30915769339759
30
0
11
-482.9944563669161
21
-173.3091566206873
31
0
0
LWPOLYLINE
5
780
100
AcDbEntity
8
0
100
AcDbPolyline
90
4
70
1
43
0.0
10
-460.09441587520485
20
-268.8091566206873
10
-456.89441587520497
20
-268.8091566206873
10
-456.89441587520497
20
-282.00915662068729
10
-460.09441587520485
20
-282.00915662068729
0
LWPOLYLINE
5
781
100
AcDbEntity
8
0
100
AcDbPolyline
90
4
70
1
43
0.0
10
-75.050326447226709
20
-319.50704750680922
10
-78.250326447226698
20
-319.50704750680922
10
-78.250326447226698
20
-302.05704750680911
10
-75.050326447226709
20
-302.05704750680911
0
LWPOLYLINE
5
782
100
AcDbEntity
8
0
100
AcDbPolyline
90
4
70
1
43
0.0
10
-75.050326447226709
20
-256.00704750680916
10
-78.250326447226698
20
-256.00704750680916
10
-78.250326447226698
20
-242.80704750680928
10
-75.050326447226709
20
-242.80704750680928
0
LWPOLYLINE
5
783
100
AcDbEntity
8
0
100
AcDbPolyline
90
4
70
1
43
0.0
10
-451.78259999999989
20
74.851943490180076
10
-451.78259999999989
20
88.951943490180099
10
-454.98259999999988
20
88.951943490180099
10
-454.98259999999988
20
74.851943490180076
0
LWPOLYLINE
5
784
100
AcDbEntity
8
0
100
AcDbPolyline
90
4
70
1
43
0.0
10
-454.98259999999988
20
116.75194349018014
10
-454.98259999999988
20
102.65194349018014
10
-451.78259999999989
20
102.65194349018014
10
-451.78259999999989
20
116.75194349018014
0
LINE
5
785
100
AcDbEntity
8
0
100
AcDbLine
10
-72.382600000000025
20
191.08650999847293
30
0
11
-70.782600000000016
21
191.08650999847293
31
0
0
LWPOLYLINE
5
786
100
AcDbEntity
8
0
100
AcDbPolyline
90
4
70
1
43
0.0
10
-70.782600000000002
20
102.65194348992374
10
-73.982600000000005
20
102.65194348992374
10
-73.982600000000005
20
116.75194348992375
10
-70.782600000000002
20
116.75194348992375
0
LWPOLYLINE
5
787
100
AcDbEntity
8
0
100
AcDbPolyline
90
4
70
1
43
0.0
10
-454.98259999999988
20
163.28650999821448
10
-454.98259999999988
20
149.18650999821449
10
-451.78259999999989
20
149.18650999821449
10
-451.78259999999989
20
163.28650999821448
0
LWPOLYLINE
5
788
100
AcDbEntity
8
0
100
AcDbPolyline
90
4
70
1
43
0.0
10
-78.250326447226698
20
-268.80704750680923
10
-75.050326447226709
20
-268.80704750680923
10
-75.050326447226709
20
-282.00704750680922
10
-78.250326447226698
20
-282.00704750680922
0
LWPOLYLINE
5
789
100
AcDbEntity
8
0
100
AcDbPolyline
90
4
70
1
43
0.0
10
-70.782600000000016
20
163.28650999847275
10
-70.782600000000016
20
149.18650999847279
10
-73.982600000000019
20
149.18650999847279
10
-73.982600000000019
20
163.28650999847275
0
LINE
5
790
100
AcDbEntity
8
0
100
AcDbLine
10
-451.78259999999989
20
191.08650999821464
30
0
11
-451.78259999999989
21
176.98650999821453
31
0
0
LINE
5
791
100
AcDbEntity
8
0
100
AcDbLine
10
-453.38259999999991
20
191.08650999821464
30
0
11
-451.78259999999989
21
191.08650999821464
31
0
0
LINE
5
792
100
AcDbEntity
8
0
100
AcDbLine
10
-451.78259999999989
20
176.98650999821453
30
0
11
-454.98259999999988
21
176.98650999821453
31
0
0
LINE
5
793
100
AcDbEntity
8
0
100
AcDbLine
10
-70.782600000000016
20
176.9865099984728
30
0
11
-70.782600000000016
21
191.08650999847293
31
0
0
LINE
5
794
100
AcDbEntity
8
0
100
AcDbLine
10
-454.98259999999988
20
191.08650999821464
30
0
11
-451.78259999999989
21
191.08650999821464
31
0
0
LWPOLYLINE
5
795
100
AcDbEntity
8
0
100
AcDbPolyline
90
4
70
1
43
0.0
10
-456.89441587520497
20
-256.00915662068729
10
-460.09441587520485
20
-256.00915662068729
10
-460.09441587520485
20
-242.80915662068739
10
-456.89441587520497
20
-242.80915662068739
0
LINE
5
796
100
AcDbEntity
8
0
100
AcDbLine
10
-460.09441587520485
20
-196.75915662068729
30
0
11
-456.89441587520497
21
-196.75915662068729
31
0
0
LWPOLYLINE
5
797
100
AcDbEntity
8
0
100
AcDbPolyline
90
4
70
1
43
0.0
10
-460.09441587520485
20
-230.00915662068729
10
-460.09441587520485
20
-216.8091566206873
10
-456.89441587520497
20
-216.8091566206873
10
-456.89441587520497
20
-230.00915662068729
0
LWPOLYLINE
5
798
100
AcDbEntity
8
0
100
AcDbPolyline
90
4
70
1
43
0.0
10
-460.09441587520485
20
-319.50915662068729
10
-460.09441587520485
20
-302.05915662068719
10
-456.89441587520497
20
-302.05915662068719
10
-456.89441587520497
20
-319.50915662068729
0
LWPOLYLINE
5
799
100
AcDbEntity
8
0
100
AcDbPolyline
90
4
70
1
43
0.0
10
-73.982600000000005
20
88.951943489923693
10
-70.782600000000002
20
88.951943489923693
10
-70.782600000000002
20
74.851943489923684
10
-73.982600000000005
20
74.851943489923684
0
LINE
5
800
100
AcDbEntity
8
0
100
AcDbLine
10
-72.382600000000025
20
191.08650999847293
30
0
11
-73.982600000000019
21
191.08650999847293
31
0
0
LINE
5
801
100
AcDbEntity
8
0
100
AcDbLine
10
-78.250326447226698
20
-179.3070475068092
30
0
11
-78.250326447226698
21
-196.75704750680919
31
0
0
LINE
5
802
100
AcDbEntity
8
0
100
AcDbLine
10
-456.89441587520497
20
-196.75915662068729
30
0
11
-456.89441587520497
21
-179.3091566206873
31
0
0
LINE
5
803
100
AcDbEntity
8
0
100
AcDbLine
10
-76.650326447226703
20
-319.50704750680922
30
0
11
-78.250326447226698
21
-319.50704750680922
31
0
0
LINE
5
804
100
AcDbEntity
8
0
100
AcDbLine
10
-456.89441587520497
20
-179.3091566206873
30
0
11
-460.09441587520485
21
-179.3091566206873
31
0
0
LWPOLYLINE
5
805
100
AcDbEntity
8
0
100
AcDbPolyline
90
44
70
1
43
0.0
10
-287.95104082347257
20
-90.359490000000037
10
-291.15102768812943
20
-90.359490000000022
10
-291.15102768812943
20
-74.059489714219026
10
-287.95102768812944
20
-74.059489387611876
10
-287.95102768812944
20
-57.559490000000039
10
-303.6510243242322
20
-57.559490000000039
10
-303.65102768812949
20
-54.359490000000037
10
-316.55099946200738
20
-54.359490000000037
10
-316.55101451599359
20
-57.559490000000039
10
-329.05099167188928
20
-57.559490000000018
10
-329.05102768812947
20
-54.359535268564514
10
-341.95089812642544
20
-54.359490000000037
10
-341.95089812642544
20
-57.559490000000039
10
-357.65102768812949
20
-57.559490000000018
10
-357.65102768812949
20
-74.059220423700367
10
-354.4510276881295
20
-74.059551954241329
10
-354.4510276881295
20
-90.359490000000022
10
-357.65083261125005
20
-90.359490000000037
10
-357.65095911295475
20
-102.55949000000001
10
-354.4510276881295
20
-102.55954507809901
10
-354.4510276881295
20
-114.3595154302956
10
-357.65102768812949
20
-114.35954449389118
10
-357.65101053315982
20
-126.55949
10
-354.4510276881295
20
-126.5595039835423
10
-354.4510276881295
20
-142.85949114303011
10
-357.65102768812949
20
-142.85949244935222
10
-357.65102768812949
20
-159.35948999999999
10
-341.95102918377557
20
-159.35948999999999
10
-341.95102768812944
20
-162.55948999999998
10
-329.05106455432633
20
-162.55948999999998
10
-329.05104489226682
20
-159.35948999999999
10
-316.5510705480923
20
-159.35948999999999
10
-316.55102768812941
20
-162.55943750239328
10
-303.65117509081028
20
-162.55948999999998
10
-303.65117509081028
20
-159.35948999999999
10
-287.95128706333963
20
-159.35948999999999
10
-287.95116931147015
20
-142.85948999999999
10
-291.15102768812943
20
-142.8593189139194
10
-291.15102768812943
20
-126.55949
10
-287.95108796419026
20
-126.55949
10
-287.95108796419026
20
-114.35949000000001
10
-291.15102768812943
20
-114.35944250526349
10
-291.15102768812943
20
-102.55946939971359
10
-287.95104082347257
20
-102.55944585635311
0
LINE
5
806
100
AcDbEntity
8
0
100
AcDbLine
10
-454.98259999999988
20
176.98650999821453
30
0
11
-454.98259999999988
21
191.08650999821464
31
0
0
LINE
5
807
100
AcDbEntity
8
0
100
AcDbLine
10
-70.782600000000016
20
191.08650999847293
30
0
11
-73.982600000000019
21
191.08650999847293
31
0
0
LINE
5
808
100
AcDbEntity
8
0
100
AcDbLine
10
-453.38259999999991
20
191.08650999821464
30
0
11
-454.98259999999988
21
191.08650999821464
31
0
0
LINE
5
809
100
AcDbEntity
8
0
100
AcDbLine
10
-75.050326447226709
20
-196.75704750680919
30
0
11
-75.050326447226709
21
-179.3070475068092
31
0
0
LINE
5
810
100
AcDbEntity
8
0
100
AcDbLine
10
-75.050326447226709
20
-179.3070475068092
30
0
11
-78.250326447226698
21
-179.3070475068092
31
0
0
LWPOLYLINE
5
811
100
AcDbEntity
8
0
100
AcDbPolyline
90
4
70
1
43
0.0
10
-78.250326447226698
20
-216.8070475068092
10
-75.050326447226709
20
-216.8070475068092
10
-75.050326447226709
20
-230.00704750680916
10
-78.250326447226698
20
-230.00704750680916
0
LINE
5
812
100
AcDbEntity
8
0
100
AcDbLine
10
-458.49441587520494
20
-179.3091566206873
30
0
11
-456.89441587520497
21
-179.3091566206873
31
0
0
LINE
5
813
100
AcDbEntity
8
0
100
AcDbLine
10
-78.250326447226698
20
-196.75704750680919
30
0
11
-75.050326447226709
21
-196.75704750680919
31
0
0
LINE
5
814
100
AcDbEntity
8
0
100
AcDbLine
10
-76.650326447226703
20
-179.3070475068092
30
0
11
-78.250326447226698
21
-179.3070475068092
31
0
0
LINE
5
815
100
AcDbEntity
8
0
100
AcDbLine
10
-458.49441587520494
20
-179.3091566206873
30
0
11
-460.09441587520485
21
-179.3091566206873
31
0
0
LINE
5
816
100
AcDbEntity
8
0
100
AcDbLine
10
-73.982600000000019
20
176.9865099984728
30
0
11
-70.782600000000016
21
176.9865099984728
31
0
0
LINE
5
817
100
AcDbEntity
8
0
100
AcDbLine
10
-460.09441587520485
20
-179.3091566206873
30
0
11
-460.09441587520485
21
-196.75915662068729
31
0
0
LINE
5
818
100
AcDbEntity
8
0
100
AcDbLine
10
-73.982600000000019
20
191.08650999847293
30
0
11
-73.982600000000019
21
176.9865099984728
31
0
0
LWPOLYLINE
5
819
100
AcDbEntity
8
0
100
AcDbPolyline
90
44
70
1
43
0.0
10
-431.18259999999998
20
-90.359490000000022
10
-434.38240492312076
20
-90.359490000000037
10
-434.3825314248254
20
-102.55949000000001
10
-431.18259999999998
20
-102.55954507809901
10
-431.18259999999998
20
-114.3595154302956
10
-434.38260000000002
20
-114.35954449389118
10
-434.38258284503041
20
-126.55949
10
-431.18259999999998
20
-126.5595039835423
10
-431.18259999999998
20
-142.85949114303011
10
-434.38260000000002
20
-142.85949244935222
10
-434.38260000000002
20
-159.35948999999999
10
-418.68260149564611
20
-159.35948999999999
10
-418.68259999999998
20
-162.55948999999998
10
-405.78263686619687
20
-162.55948999999998
10
-405.78261720413741
20
-159.35948999999999
10
-393.28264285996289
20
-159.35948999999999
10
-393.2826
20
-162.55943750239328
10
-380.38274740268093
20
-162.55948999999998
10
-380.38274740268093
20
-159.35948999999999
10
-364.68285937521023
20
-159.35948999999999
10
-364.68274162334097
20
-142.85948999999999
10
-367.88260000000008
20
-142.8593189139194
10
-367.88260000000008
20
-126.55949
10
-364.68266027606091
20
-126.55949
10
-364.68266027606097
20
-114.35949000000001
10
-367.88260000000008
20
-114.35944250526349
10
-367.88260000000008
20
-102.55946939971359
10
-364.68261313534322
20
-102.55944585635311
10
-364.68261313534322
20
-90.359490000000037
10
-367.88260000000008
20
-90.359490000000022
10
-367.88260000000008
20
-74.059489714219012
10
-364.68259999999998
20
-74.059489387611876
10
-364.68259999999998
20
-57.559490000000039
10
-380.38259663610285
20
-57.559490000000039
10
-380.38260000000008
20
-54.359490000000037
10
-393.28257177387809
20
-54.359490000000037
10
-393.28258682786407
20
-57.559490000000039
10
-405.78256398375976
20
-57.559490000000039
10
-405.7826
20
-54.359535268564514
10
-418.68247043829604
20
-54.359490000000037
10
-418.68247043829604
20
-57.559490000000039
10
-434.38260000000002
20
-57.559490000000039
10
-434.38260000000002
20
-74.059220423700367
10
-431.18259999999998
20
-74.059551954241329
0
LINE
5
820
100
AcDbEntity
8
0
100
AcDbLine
10
-76.650326447226703
20
-179.3070475068092
30
0
11
-75.050326447226709
21
-179.3070475068092
31
0
0
LWPOLYLINE
5
821
100
AcDbEntity
8
0
100
AcDbPolyline
90
52
70
1
43
0.0
10
-552.18259999999998
20
-146.10948999999999
10
-552.18259999999998
20
-162.38106553273491
10
-535.88260000000002
20
-162.38106553273491
10
-535.88260000000002
20
-165.5810655327349
10
-519.18259999999998
20
-165.60946319972319
10
-519.18259999999998
20
-162.38106553273491
10
-507.38263678746421
20
-162.38106553273491
10
-507.38259127671574
20
-165.60948999999999
10
-495.18259999999998
20
-165.6093828862046
10
-495.18259999999998
20
-162.38106553273491
10
-483.38259999999997
20
-162.38106553273491
10
-483.38259999999997
20
-165.60906229053842
10
-466.68259999999998
20
-165.60924919041142
10
-466.68259999999998
20
-162.38106553273491
10
-450.40740675158895
20
-162.38106553273491
10
-450.40740675158895
20
-146.10948999999999
10
-447.18265249484818
20
-146.10948999999999
10
-447.18259999999998
20
-129.40931933990652
10
-450.40740675158895
20
-129.40931933990652
10
-450.40740675158895
20
-117.6090091439216
10
-447.05460488456197
20
-117.60817376040396
42
0.99745837481858912
10
-447.08408799218864
20
-105.41026938155839
10
-450.40740675158895
20
-105.40984466406529
10
-450.40740675158895
20
-93.609490000000037
10
-447.18287390527627
20
-93.609490000000037
10
-447.18265249484818
20
-76.909490000000019
10
-450.40740675158895
20
-76.909490000000019
10
-450.40740675158895
20
-60.609490000000022
10
-466.68259999999998
20
-60.609490000000022
10
-466.68259999999998
20
-57.409499644130676
10
-483.38259999999997
20
-57.409516800276734
10
-483.38259999999997
20
-60.609490000000022
10
-495.18257412693998
20
-60.609490000000022
10
-495.18260872328403
20
-57.409490000000019
10
-507.38259999999997
20
-57.409597113795442
10
-507.38259999999997
20
-60.609490000000022
10
-519.18274615681173
20
-60.609490000000022
10
-519.18274615681173
20
-57.409490000000019
10
-535.88217090690864
20
-57.409490000000019
10
-535.88239975721126
20
-60.609490000000022
10
-552.18259999999998
20
-60.609490000000022
10
-552.18259999999998
20
-76.90961603323268
10
-555.38260000000002
20
-76.90961603323268
10
-555.38259892729036
20
-93.609490000000037
10
-552.18259999999998
20
-93.609490000000037
10
-552.18259999999998
20
-105.4093776744284
10
-555.38259571460219
20
-105.40949000000001
10
-555.38256141388774
20
-117.60948999999999
10
-552.18259999999998
20
-117.60971006208491
10
-552.18259999999998
20
-129.40947443860969
10
-555.38247041343686
20
-129.40951686262591
10
-555.38247041343686
20
-146.10948999999999
0
LINE
5
822
100
AcDbEntity
8
0
100
AcDbLine
10
-434.38260000000002
20
-142.85949244935222
30
0
11
-431.18259999999998
21
-142.85949244935222
31
0
0
LINE
5
823
100
AcDbEntity
8
0
100
AcDbLine
10
-364.68259999999998
20
-74.059489387611876
30
0
11
-367.88260000000008
21
-74.059489387611876
31
0
0
LINE
5
824
100
AcDbEntity
8
0
100
AcDbLine
10
-380.38274740268093
20
-159.35948999999999
30
0
11
-380.38274740268093
21
-162.55948999999998
31
0
0
LINE
5
825
100
AcDbEntity
8
0
100
AcDbLine
10
-418.68247043829604
20
-57.559490000000039
30
0
11
-418.68247043829604
21
-54.359490000000037
31
0
0
LWPOLYLINE
5
826
100
AcDbEntity
8
0
100
AcDbPolyline
90
52
70
1
43
0.0
10
-404.08223395393145
20
38.840405296114959
10
-407.28223395393144
20
38.840405296114994
10
-407.28934764906569
20
22.140362599797349
10
-404.08223395393145
20
22.140362599797349
10
-404.08223395393145
20
10.340528123242173
10
-407.2826
20
10.340403114938892
10
-407.2826
20
-1.859168164154301
10
-404.08223395393145
20
-1.8593956782868126
10
-404.08223395393151
20
-13.659594703885032
10
-407.28256142784068
20
-13.659594703885032
10
-407.28256757430648
20
-30.35959470388503
10
-404.08223395393145
20
-30.35959470388503
10
-404.08223395393145
20
-46.659487590090698
10
-387.78259999999989
20
-46.659487590090698
10
-387.78259999999995
20
-49.859487590090708
10
-371.08260000000007
20
-49.859487590090708
10
-371.08260000000007
20
-46.659487590090698
10
-359.28260000000012
20
-46.659487590090698
10
-359.28260000000012
20
-49.859517314998449
10
-347.08259999999996
20
-49.859585052642274
10
-347.08236394886319
20
-46.659487590090698
10
-335.28243196799457
20
-46.659487590090698
10
-335.28223931740331
20
-49.859594703885016
10
-318.58264772210174
20
-49.859594703885016
10
-318.58262226782432
20
-46.659487590090698
10
-302.28278093377855
20
-46.659487590090698
10
-302.28278093377855
20
-30.35959470388503
10
-299.08272956101212
20
-30.35959470388503
10
-299.0826002681992
20
-13.659594703885032
10
-302.28278093377855
20
-13.659432962821889
10
-302.28278093377855
20
-1.8596048197052359
10
-299.08294655433264
20
-1.8595947038850369
10
-299.08259999999996
20
10.340313254664682
10
-302.28278093377855
20
10.340390458315369
10
-302.28278093377855
20
22.14029609819935
10
-299.08259999999996
20
22.140412013411673
10
-299.08278093377851
20
38.840405296114959
10
-302.28278093377855
20
38.840405296114959
10
-302.28278093377855
20
55.140336739529587
10
-318.58264913366799
20
55.140336739529587
10
-318.58270739801105
20
58.340405296114938
10
-335.28259999999995
20
58.340077661207275
10
-335.28260703030463
20
55.140336739529587
10
-347.08259999999996
20
55.140336739529587
10
-347.08260000000007
20
58.340404225732314
10
-359.28260000000012
20
58.340287212782791
10
-359.28260000000012
20
55.140336739529587
10
-371.08260000000007
20
55.140336739529587
10
-371.08260000000007
20
58.34033673952959
10
-387.77534234429152
20
58.340405296114938
10
-387.77921326828101
20
55.140336739529587
10
-404.08223395393145
20
55.140336739529587
0
LINE
5
827
100
AcDbEntity
8
0
100
AcDbLine
10
-555.38260000000002
20
-76.90961603323268
30
0
11
-552.18259999999998
21
-76.90961603323268
31
0
0
LINE
5
828
100
AcDbEntity
8
0
100
AcDbLine
10
-535.88260000000002
20
-165.5810655327349
30
0
11
-535.88260000000002
21
-162.38106553273491
31
0
0
LINE
5
829
100
AcDbEntity
8
0
100
AcDbLine
10
-454.28255847269963
20
55.140438437078068
30
0
11
-454.28252130251497
21
58.340515828940127
31
0
0
LINE
5
830
100
AcDbEntity
8
0
100
AcDbLine
10
-482.68259099439967
20
38.640903467852816
30
0
11
-482.68259099439967
21
58.340515828940127
31
0
0
LINE
5
831
100
AcDbEntity
8
0
100
AcDbLine
10
-479.48259099439963
20
-30.159485814687127
30
0
11
-479.48259099439963
21
-13.85949815460223
31
0
0
LINE
5
832
100
AcDbEntity
8
0
100
AcDbLine
10
-479.48259099439963
20
22.34051582894007
30
0
11
-479.48259099439963
21
38.640903467852816
31
0
0
LINE
5
833
100
AcDbEntity
8
0
100
AcDbLine
10
-454.28261004713994
20
-46.659397412506522
30
0
11
-466.78259231740958
21
-46.6593974125065
31
0
0
LINE
5
834
100
AcDbEntity
8
0
100
AcDbLine
10
-482.68259099439967
20
-49.859484171059911
30
0
11
-482.68259099439967
21
-30.159487693121008
31
0
0
LINE
5
835
100
AcDbEntity
8
0
100
AcDbLine
10
-482.68259099439967
20
58.340515828940127
30
0
11
-466.82715093666133
21
58.340515828940127
31
0
0
LINE
5
836
100
AcDbEntity
8
0
100
AcDbLine
10
-454.28259099439958
20
-49.859457380660018
30
0
11
-454.28261004713994
21
-46.659397412506522
31
0
0
LINE
5
837
100
AcDbEntity
8
0
100
AcDbLine
10
-428.88258460674467
20
58.340515828940127
30
0
11
-412.98259099439963
21
58.340514951594855
31
0
0
LINE
5
838
100
AcDbEntity
8
0
100
AcDbLine
10
-482.68259099439967
20
-1.6595386649510149
30
0
11
-479.48259099439963
21
-1.6595096013555199
31
0
0
LINE
5
839
100
AcDbEntity
8
0
100
AcDbLine
10
-428.88266717259711
20
-46.6593974125065
30
0
11
-441.38262969565625
21
-46.6593974125065
31
0
0
LINE
5
840
100
AcDbEntity
8
0
100
AcDbLine
10
-441.38267392906289
20
-49.859484171059883
30
0
11
-454.28259099439958
21
-49.859457380660018
31
0
0
LINE
5
841
100
AcDbEntity
8
0
100
AcDbLine
10
-479.48259099439963
20
38.640903467852816
30
0
11
-482.68259099439967
21
38.640903467852816
31
0
0
LINE
5
842
100
AcDbEntity
8
0
100
AcDbLine
10
-479.48259099439963
20
-1.6595096013555199
30
0
11
-479.48259099439963
21
10.140515828940078
31
0
0
LINE
5
843
100
AcDbEntity
8
0
100
AcDbLine
10
-466.78259231740958
20
-46.6593974125065
30
0
11
-466.78259383446033
21
-49.859484171059911
31
0
0
LINE
5
844
100
AcDbEntity
8
0
100
AcDbLine
10
-412.98273261774028
20
-49.859484171059883
30
0
11
-428.88259099439955
21
-49.859397412506503
31
0
0
LINE
5
845
100
AcDbEntity
8
0
100
AcDbLine
10
-416.18259099439962
20
22.340525540529686
30
0
11
-412.98260412974281
21
22.34051582894007
31
0
0
LINE
5
846
100
AcDbEntity
8
0
100
AcDbLine
10
-416.18259099439962
20
38.640516709527468
30
0
11
-416.18259099439962
21
22.340525540529686
31
0
0
LINE
5
847
100
AcDbEntity
8
0
100
AcDbLine
10
-412.98259099439963
20
58.340514951594855
30
0
11
-412.98259099439963
21
38.640516709527468
31
0
0
LINE
5
848
100
AcDbEntity
8
0
100
AcDbLine
10
-479.48259099439963
20
10.140515828940078
30
0
11
-482.68252241922505
21
10.140515828940078
31
0
0
LINE
5
849
100
AcDbEntity
8
0
100
AcDbLine
10
-371.08260000000007
20
58.34033673952959
30
0
11
-371.08260000000007
21
55.140336739529587
31
0
0
LINE
5
850
100
AcDbEntity
8
0
100
AcDbLine
10
-466.78259099439964
20
58.34043843707807
30
0
11
-466.78259099439964
21
55.140438437078068
31
0
0
LINE
5
851
100
AcDbEntity
8
0
100
AcDbLine
10
-186.48259999999999
20
-70.409490000000019
30
0
11
-183.28255661184789
21
-70.409490000000019
31
0
0
LINE
5
852
100
AcDbEntity
8
0
100
AcDbLine
10
-412.98265127046056
20
-1.659484171059926
30
0
11
-412.98280077292537
21
-13.859484171059911
31
0
0
LINE
5
853
100
AcDbEntity
8
0
100
AcDbLine
10
-482.68252241922505
20
10.140515828940078
30
0
11
-482.68239591752041
21
22.34051582894007
31
0
0
LINE
5
854
100
AcDbEntity
8
0
100
AcDbLine
10
-183.28255661184789
20
14.840560230612992
30
0
11
-183.28255661184789
21
34.890509999999992
31
0
0
LINE
5
855
100
AcDbEntity
8
0
100
AcDbLine
10
-555.38260000000002
20
-1.659548015952321
30
0
11
-552.18259999999998
21
-1.659518952356809
31
0
0
LINE
5
856
100
AcDbEntity
8
0
100
AcDbLine
10
-555.3825314248254
20
10.140506477938791
30
0
11
-555.38240492312082
21
22.340506477938781
31
0
0
LINE
5
857
100
AcDbEntity
8
0
100
AcDbLine
10
-412.98260412974281
20
22.34051582894007
30
0
11
-412.98259099439963
21
10.140559972586949
31
0
0
LINE
5
858
100
AcDbEntity
8
0
100
AcDbLine
10
-183.28255661184789
20
-37.159490139987724
30
0
11
-183.28255661184789
21
-24.359445365510641
31
0
0
LINE
5
859
100
AcDbEntity
8
0
100
AcDbLine
10
-416.18259099439962
20
-13.859484171059911
30
0
11
-416.18259099439962
21
-30.159484171059919
31
0
0
LINE
5
860
100
AcDbEntity
8
0
100
AcDbLine
10
-416.18259099439962
20
10.140536429181379
30
0
11
-416.18259099439962
21
-1.6594366763233026
31
0
0
LINE
5
861
100
AcDbEntity
8
0
100
AcDbLine
10
-555.38260000000002
20
58.340506477938881
30
0
11
-539.52715994226162
21
58.340506477938881
31
0
0
LINE
5
862
100
AcDbEntity
8
0
100
AcDbLine
10
-555.38260000000002
20
-49.8594935220612
30
0
11
-555.38260000000002
21
-30.159497044122322
31
0
0
LINE
5
863
100
AcDbEntity
8
0
100
AcDbLine
10
-428.88258801358018
20
55.140438437078068
30
0
11
-428.88258460674467
21
58.340515828940127
31
0
0
LINE
5
864
100
AcDbEntity
8
0
100
AcDbLine
10
-555.38240492312082
20
22.340506477938781
30
0
11
-552.18259999999998
21
22.340506477938781
31
0
0
LINE
5
865
100
AcDbEntity
8
0
100
AcDbLine
10
-485.68259999999987
20
38.640507358526179
30
0
11
-488.88259999999991
21
38.640507358526179
31
0
0
LINE
5
866
100
AcDbEntity
8
0
100
AcDbLine
10
-428.88259099439955
20
-49.859397412506503
30
0
11
-428.88266717259711
21
-46.6593974125065
31
0
0
LINE
5
867
100
AcDbEntity
8
0
100
AcDbLine
10
-526.9825303081152
20
58.340506477938881
30
0
11
-514.08259999999996
21
58.340484776836433
31
0
0
LINE
5
868
100
AcDbEntity
8
0
100
AcDbLine
10
-183.28255661184789
20
-24.359445365510641
30
0
11
-186.48259999999999
21
-24.359028476489733
31
0
0
LINE
5
869
100
AcDbEntity
8
0
100
AcDbLine
10
-482.68239591752041
20
22.34051582894007
30
0
11
-479.48259099439963
21
22.34051582894007
31
0
0
LINE
5
870
100
AcDbEntity
8
0
100
AcDbLine
10
-186.482556611848
20
34.890509999999992
30
0
11
-186.48258730839999
21
51.940329066250357
31
0
0
LINE
5
871
100
AcDbEntity
8
0
100
AcDbLine
10
-485.6827416233408
20
-49.859493522061186
30
0
11
-501.58259999999996
21
-49.859406763507785
31
0
0
LINE
5
872
100
AcDbEntity
8
0
100
AcDbLine
10
-412.98273261774045
20
-30.159484171059919
30
0
11
-412.98273261774028
21
-49.859484171059883
31
0
0
LINE
5
873
100
AcDbEntity
8
0
100
AcDbLine
10
-482.68257383943001
20
-13.859484171059911
30
0
11
-482.68259099439967
21
-1.6595386649510149
31
0
0
LINE
5
874
100
AcDbEntity
8
0
100
AcDbLine
10
-501.58259701918053
20
55.140429086076772
30
0
11
-501.58259361234502
21
58.340506477938881
31
0
0
LINE
5
875
100
AcDbEntity
8
0
100
AcDbLine
10
-412.98259099439963
20
10.140559972586949
30
0
11
-416.18259099439962
21
10.140536429181379
31
0
0
LINE
5
876
100
AcDbEntity
8
0
100
AcDbLine
10
-488.88259999999991
20
-13.859493522061177
30
0
11
-488.88259999999991
21
-30.159493522061183
31
0
0
LINE
5
877
100
AcDbEntity
8
0
100
AcDbLine
10
-454.28252130251497
20
58.340515828940127
30
0
11
-441.38259099439961
21
58.340494127837871
31
0
0
LINE
5
878
100
AcDbEntity
8
0
100
AcDbLine
10
-552.18259999999998
20
10.140506477938828
30
0
11
-555.3825314248254
21
10.140506477938791
31
0
0
LINE
5
879
100
AcDbEntity
8
0
100
AcDbLine
10
-466.78259383446033
20
-49.859484171059911
30
0
11
-482.68259099439967
21
-49.859484171059911
31
0
0
LINE
5
880
100
AcDbEntity
8
0
100
AcDbLine
10
-416.18259099439962
20
-30.159484171059919
30
0
11
-412.98273261774045
21
-30.159484171059919
31
0
0
LINE
5
881
100
AcDbEntity
8
0
100
AcDbLine
10
-552.18259999999998
20
-30.159495165688416
30
0
11
-552.18259999999998
21
-13.859507505603501
31
0
0
LINE
5
882
100
AcDbEntity
8
0
100
AcDbLine
10
-479.48259099439963
20
-13.85949815460223
30
0
11
-482.68257383943001
21
-13.859484171059911
31
0
0
LINE
5
883
100
AcDbEntity
8
0
100
AcDbLine
10
-555.38260000000002
20
38.64089411685147
30
0
11
-555.38260000000002
21
58.340506477938881
31
0
0
LINE
5
884
100
AcDbEntity
8
0
100
AcDbLine
10
-302.28278093377855
20
38.840405296114959
30
0
11
-299.08278093377851
21
38.840405296114959
31
0
0
LINE
5
885
100
AcDbEntity
8
0
100
AcDbLine
10
-412.98259099439963
20
38.640516709527468
30
0
11
-416.18259099439962
21
38.640516709527468
31
0
0
LINE
5
886
100
AcDbEntity
8
0
100
AcDbLine
10
-552.18259999999998
20
-13.859507505603501
30
0
11
-555.38258284503047
21
-13.859493522061177
31
0
0
LINE
5
887
100
AcDbEntity
8
0
100
AcDbLine
10
-485.68280977852572
20
-13.859493522061177
30
0
11
-488.88259999999991
21
-13.859493522061177
31
0
0
LINE
5
888
100
AcDbEntity
8
0
100
AcDbLine
10
-555.38260000000002
20
-30.159497044122322
30
0
11
-552.18259999999998
21
-30.159495165688416
31
0
0
LINE
5
889
100
AcDbEntity
8
0
100
AcDbLine
10
-412.98280077292537
20
-13.859484171059911
30
0
11
-416.18259099439962
21
-13.859484171059911
31
0
0
LINE
5
890
100
AcDbEntity
8
0
100
AcDbLine
10
-552.18259999999998
20
38.64089411685147
30
0
11
-555.38260000000002
21
38.64089411685147
31
0
0
LINE
5
891
100
AcDbEntity
8
0
100
AcDbLine
10
-552.18259999999998
20
22.340506477938781
30
0
11
-552.18259999999998
21
38.64089411685147
31
0
0
LINE
5
892
100
AcDbEntity
8
0
100
AcDbLine
10
-552.18259999999998
20
-1.659518952356809
30
0
11
-552.18259999999998
21
10.140506477938828
31
0
0
LINE
5
893
100
AcDbEntity
8
0
100
AcDbLine
10
-482.68259099439967
20
-30.159487693121008
30
0
11
-479.48259099439963
21
-30.159485814687127
31
0
0
LINE
5
894
100
AcDbEntity
8
0
100
AcDbLine
10
-416.18259099439962
20
-1.6594366763233026
30
0
11
-412.98265127046056
21
-1.659484171059926
31
0
0
LINE
5
895
100
AcDbEntity
8
0
100
AcDbLine
10
-488.88259999999991
20
10.140527078180179
30
0
11
-488.88259999999991
21
-1.659446027324627
31
0
0
LINE
5
896
100
AcDbEntity
8
0
100
AcDbLine
10
-441.38259099439961
20
58.340494127837871
30
0
11
-441.38259099439961
21
55.140438437078068
31
0
0
LINE
5
897
100
AcDbEntity
8
0
100
AcDbLine
10
-441.38259099439961
20
55.140438437078068
30
0
11
-428.88258801358018
21
55.140438437078068
31
0
0
LINE
5
898
100
AcDbEntity
8
0
100
AcDbLine
10
-183.28255661184789
20
-11.1595941496869
30
0
11
-183.28255661184789
21
1.6405158595486746
31
0
0
LINE
5
899
100
AcDbEntity
8
0
100
AcDbLine
10
-466.78259099439964
20
55.140438437078068
30
0
11
-454.28255847269963
21
55.140438437078068
31
0
0
LINE
5
900
100
AcDbEntity
8
0
100
AcDbLine
10
-441.38262969565625
20
-46.6593974125065
30
0
11
-441.38267392906289
21
-49.859484171059883
31
0
0
LINE
5
901
100
AcDbEntity
8
0
100
AcDbLine
10
-539.48260132300993
20
-46.659406763507782
30
0
11
-539.48260284006074
21
-49.8594935220612
31
0
0
LINE
5
902
100
AcDbEntity
8
0
100
AcDbLine
10
-485.68259999999987
20
10.140550621585671
30
0
11
-488.88259999999991
21
10.140527078180179
31
0
0
LINE
5
903
100
AcDbEntity
8
0
100
AcDbLine
10
-186.48259999999999
20
-24.359028476489733
30
0
11
-186.48259999999999
21
-11.159829225805121
31
0
0
LINE
5
904
100
AcDbEntity
8
0
100
AcDbLine
10
-526.98259999999993
20
-49.85946673166125
30
0
11
-526.98261905274012
21
-46.659406763507782
31
0
0
LINE
5
905
100
AcDbEntity
8
0
100
AcDbLine
10
-183.28255661184789
20
-50.359521771710263
30
0
11
-186.48259999999999
21
-50.359374499870569
31
0
0
LINE
5
906
100
AcDbEntity
8
0
100
AcDbLine
10
-501.58259361234502
20
58.340506477938881
30
0
11
-485.68259999999987
21
58.340505600593602
31
0
0
LINE
5
907
100
AcDbEntity
8
0
100
AcDbLine
10
-186.48259999999999
20
-37.159490590038217
30
0
11
-183.28255661184789
21
-37.159490139987724
31
0
0
LINE
5
908
100
AcDbEntity
8
0
100
AcDbLine
10
-485.68266027606109
20
-1.659493522061197
30
0
11
-485.68280977852572
21
-13.859493522061177
31
0
0
LINE
5
909
100
AcDbEntity
8
0
100
AcDbLine
10
-186.48259999999999
20
1.6405247372168039
30
0
11
-186.48259999999999
21
14.84045103940117
31
0
0
LINE
5
910
100
AcDbEntity
8
0
100
AcDbLine
10
-526.98261905274012
20
-46.659406763507782
30
0
11
-539.48260132300993
21
-46.659406763507782
31
0
0
LINE
5
911
100
AcDbEntity
8
0
100
AcDbLine
10
-514.08259999999996
20
55.140429086076772
30
0
11
-501.58259701918053
21
55.140429086076772
31
0
0
LINE
5
912
100
AcDbEntity
8
0
100
AcDbLine
10
-485.6827416233408
20
-30.159493522061183
30
0
11
-485.6827416233408
21
-49.859493522061186
31
0
0
LINE
5
913
100
AcDbEntity
8
0
100
AcDbLine
10
-488.88259999999991
20
-30.159493522061183
30
0
11
-485.6827416233408
21
-30.159493522061183
31
0
0
LINE
5
914
100
AcDbEntity
8
0
100
AcDbLine
10
-488.88259999999991
20
-1.659446027324627
30
0
11
-485.68266027606109
21
-1.659493522061197
31
0
0
LINE
5
915
100
AcDbEntity
8
0
100
AcDbLine
10
-172.58260000000001
20
-90.659472851528591
30
0
11
-186.48259999999999
21
-90.659472851528591
31
0
0
LINE
5
916
100
AcDbEntity
8
0
100
AcDbLine
10
-501.58259999999996
20
-49.859406763507785
30
0
11
-501.5826761781974
21
-46.659406763507782
31
0
0
LINE
5
917
100
AcDbEntity
8
0
100
AcDbLine
10
-514.08268293466324
20
-49.8594935220612
30
0
11
-526.98259999999993
21
-49.85946673166125
31
0
0
LINE
5
918
100
AcDbEntity
8
0
100
AcDbLine
10
-526.98256747829987
20
55.140429086076772
30
0
11
-526.9825303081152
21
58.340506477938881
31
0
0
LINE
5
919
100
AcDbEntity
8
0
100
AcDbLine
10
-158.48259999999991
20
-93.859437488579616
30
0
11
-172.58260000000001
21
-93.859472851528594
31
0
0
LINE
5
920
100
AcDbEntity
8
0
100
AcDbLine
10
-485.68261313534299
20
22.340506477938781
30
0
11
-485.68259999999987
21
10.140550621585671
31
0
0
LINE
5
921
100
AcDbEntity
8
0
100
AcDbLine
10
-144.78257731958311
20
-93.859490000000037
30
0
11
-144.78267290982609
21
-90.659472851528591
31
0
0
LINE
5
922
100
AcDbEntity
8
0
100
AcDbLine
10
-514.08263870125643
20
-46.659406763507782
30
0
11
-514.08268293466324
21
-49.8594935220612
31
0
0
LINE
5
923
100
AcDbEntity
8
0
100
AcDbLine
10
-186.48259999999999
20
-87.459472851528588
30
0
11
-186.48259999999999
21
-70.409490000000019
31
0
0
LINE
5
924
100
AcDbEntity
8
0
100
AcDbLine
10
-116.78260004334302
20
-90.659472851528591
30
0
11
-130.68263198418632
21
-90.659472851528591
31
0
0
LINE
5
925
100
AcDbEntity
8
0
100
AcDbLine
10
-488.88259999999991
20
22.340516189528358
30
0
11
-485.68261313534299
21
22.340506477938781
31
0
0
LINE
5
926
100
AcDbEntity
8
0
100
AcDbLine
10
-158.48259999999991
20
-90.659472851528591
30
0
11
-158.48259999999991
21
-93.859437488579616
31
0
0
LINE
5
927
100
AcDbEntity
8
0
100
AcDbLine
10
-539.48259999999993
20
58.340429086076774
30
0
11
-539.48259999999993
21
55.140429086076772
31
0
0
LINE
5
928
100
AcDbEntity
8
0
100
AcDbLine
10
-485.68259999999987
20
58.340505600593602
30
0
11
-485.68259999999987
21
38.640507358526179
31
0
0
LINE
5
929
100
AcDbEntity
8
0
100
AcDbLine
10
-130.68263198418632
20
-90.659472851528591
30
0
11
-130.68265100129909
21
-93.859490000000037
31
0
0
LINE
5
930
100
AcDbEntity
8
0
100
AcDbLine
10
-186.48259999999999
20
-50.359374499870569
30
0
11
-186.48259999999999
21
-37.159490590038217
31
0
0
LINE
5
931
100
AcDbEntity
8
0
100
AcDbLine
10
-144.78267290982609
20
-90.659472851528591
30
0
11
-158.48259999999991
21
-90.659472851528591
31
0
0
LINE
5
932
100
AcDbEntity
8
0
100
AcDbLine
10
-514.08259999999996
20
58.340484776836433
30
0
11
-514.08259999999996
21
55.140429086076772
31
0
0
LINE
5
933
100
AcDbEntity
8
0
100
AcDbLine
10
-501.5826761781974
20
-46.659406763507782
30
0
11
-514.08263870125643
21
-46.659406763507782
31
0
0
LINE
5
934
100
AcDbEntity
8
0
100
AcDbLine
10
-172.58260000000001
20
-93.859472851528594
30
0
11
-172.58260000000001
21
-90.659472851528591
31
0
0
LINE
5
935
100
AcDbEntity
8
0
100
AcDbLine
10
-183.28255661184789
20
1.6405158595486746
30
0
11
-186.48259999999999
21
1.6405247372168039
31
0
0
LINE
5
936
100
AcDbEntity
8
0
100
AcDbLine
10
-183.28255661184789
20
-70.409490000000019
30
0
11
-183.28255661184789
21
-50.359521771710263
31
0
0
LINE
5
937
100
AcDbEntity
8
0
100
AcDbLine
10
-183.28255661184789
20
34.890509999999992
30
0
11
-186.482556611848
21
34.890509999999992
31
0
0
LINE
5
938
100
AcDbEntity
8
0
100
AcDbLine
10
-539.48259999999993
20
55.140429086076772
30
0
11
-526.98256747829987
21
55.140429086076772
31
0
0
LINE
5
939
100
AcDbEntity
8
0
100
AcDbLine
10
-272.482599956657
20
-50.359391648342005
30
0
11
-272.482599956657
21
-37.159507738509731
31
0
0
LINE
5
940
100
AcDbEntity
8
0
100
AcDbLine
10
-555.38258284503047
20
-13.859493522061177
30
0
11
-555.38260000000002
21
-1.659548015952321
31
0
0
LINE
5
941
100
AcDbEntity
8
0
100
AcDbLine
10
-272.482599956657
20
14.84043389092967
30
0
11
-269.2825565685049
21
14.84054308214146
31
0
0
LINE
5
942
100
AcDbEntity
8
0
100
AcDbLine
10
-269.2825565685049
20
1.6404987110773028
30
0
11
-272.482599956657
21
1.6405075887452549
31
0
0
LINE
5
943
100
AcDbEntity
8
0
100
AcDbLine
10
-186.48259999999999
20
14.84045103940117
30
0
11
-183.28255661184789
21
14.840560230612992
31
0
0
LINE
5
944
100
AcDbEntity
8
0
100
AcDbLine
10
-539.48260284006074
20
-49.8594935220612
30
0
11
-555.38260000000002
21
-49.8594935220612
31
0
0
LINE
5
945
100
AcDbEntity
8
0
100
AcDbLine
10
-272.482599956657
20
-37.159507738509731
30
0
11
-269.2825565685049
21
-37.159507288459189
31
0
0
LINE
5
946
100
AcDbEntity
8
0
100
AcDbLine
10
-488.88259999999991
20
38.640507358526179
30
0
11
-488.88259999999991
21
22.340516189528358
31
0
0
LINE
5
947
100
AcDbEntity
8
0
100
AcDbLine
10
-186.48259999999999
20
-11.159829225805121
30
0
11
-183.28255661184789
21
-11.1595941496869
31
0
0
LINE
5
948
100
AcDbEntity
8
0
100
AcDbLine
10
-130.68265100129909
20
-93.859490000000037
30
0
11
-144.78257731958311
21
-93.859490000000037
31
0
0
LINE
5
949
100
AcDbEntity
8
0
100
AcDbLine
10
-183.28258730839997
20
55.140329066250359
30
0
11
-172.58260000000001
21
55.140329066250359
31
0
0
LINE
5
950
100
AcDbEntity
8
0
100
AcDbLine
10
-269.2825565685049
20
-24.359462513981992
30
0
11
-272.482599956657
21
-24.359045624961194
31
0
0
LINE
5
951
100
AcDbEntity
8
0
100
AcDbLine
10
-116.78260000225401
20
55.140329066250359
30
0
11
-116.78260004334302
21
-90.659472851528591
31
0
0
LINE
5
952
100
AcDbEntity
8
0
100
AcDbLine
10
-158.4824990421003
20
55.140329066250359
30
0
11
-144.7826
21
55.140329066250359
31
0
0
LINE
5
953
100
AcDbEntity
8
0
100
AcDbLine
10
-272.482599956657
20
-24.359045624961194
30
0
11
-272.482599956657
21
-11.159846374276508
31
0
0
LINE
5
954
100
AcDbEntity
8
0
100
AcDbLine
10
-158.48261008182672
20
58.340509999999981
30
0
11
-158.4824990421003
21
55.140329066250359
31
0
0
LINE
5
955
100
AcDbEntity
8
0
100
AcDbLine
10
-269.2825565685049
20
-37.159507288459189
30
0
11
-269.2825565685049
21
-24.359462513981992
31
0
0
LINE
5
956
100
AcDbEntity
8
0
100
AcDbLine
10
-144.7826
20
55.140329066250359
30
0
11
-144.7826
21
58.340471413894477
31
0
0
LINE
5
957
100
AcDbEntity
8
0
100
AcDbLine
10
-144.7826
20
58.340471413894477
30
0
11
-130.68260000000001
21
58.34048320784688
31
0
0
LINE
5
958
100
AcDbEntity
8
0
100
AcDbLine
10
-172.58260000000001
20
58.340329066250362
30
0
11
-158.48261008182672
21
58.340509999999981
31
0
0
LINE
5
959
100
AcDbEntity
8
0
100
AcDbLine
10
-269.2825565685049
20
14.84054308214146
30
0
11
-269.2825565685049
21
34.890492851528549
31
0
0
LINE
5
960
100
AcDbEntity
8
0
100
AcDbLine
10
-172.58260000000001
20
55.140329066250359
30
0
11
-172.58260000000001
21
58.340329066250362
31
0
0
LINE
5
961
100
AcDbEntity
8
0
100
AcDbLine
10
-269.28255656850502
20
-70.409507148471462
30
0
11
-269.2825565685049
21
-50.359538920181699
31
0
0
LINE
5
962
100
AcDbEntity
8
0
100
AcDbLine
10
-230.78259995665695
20
58.340454265422991
30
0
11
-216.68259995665696
21
58.34046605937548
31
0
0
LINE
5
963
100
AcDbEntity
8
0
100
AcDbLine
10
-269.2825565685049
20
34.890492851528549
30
0
11
-272.48255656850489
21
34.890492851528549
31
0
0
LINE
5
964
100
AcDbEntity
8
0
100
AcDbLine
10
-130.68260000000001
20
58.34048320784688
30
0
11
-130.68260000000001
21
55.140329066250359
31
0
0
LINE
5
965
100
AcDbEntity
8
0
100
AcDbLine
10
-258.58259995665713
20
55.140311917778853
30
0
11
-258.58259995665713
21
58.340311917778848
31
0
0
LINE
5
966
100
AcDbEntity
8
0
100
AcDbLine
10
-269.2825565685049
20
-50.359538920181699
30
0
11
-272.482599956657
21
-50.359391648342005
31
0
0
LINE
5
967
100
AcDbEntity
8
0
100
AcDbLine
10
-272.482599956657
20
-70.409507148471462
30
0
11
-269.28255656850502
21
-70.409507148471462
31
0
0
LINE
5
968
100
AcDbEntity
8
0
100
AcDbLine
10
-272.482599956657
20
1.6405075887452549
30
0
11
-272.482599956657
21
14.84043389092967
31
0
0
LINE
5
969
100
AcDbEntity
8
0
100
AcDbLine
10
-130.68260000000001
20
55.140329066250359
30
0
11
-116.78260000225401
21
55.140329066250359
31
0
0
LINE
5
970
100
AcDbEntity
8
0
100
AcDbLine
10
-269.28255656850502
20
-11.159611298158429
30
0
11
-269.2825565685049
21
1.6404987110773028
31
0
0
LINE
5
971
100
AcDbEntity
8
0
100
AcDbLine
10
-272.482599956657
20
-11.159846374276508
30
0
11
-269.28255656850502
21
-11.159611298158429
31
0
0
LINE
5
972
100
AcDbEntity
8
0
100
AcDbLine
10
178.17803135959022
20
199.69204367574321
30
0
11
178.17803135959022
21
196.49204367574328
31
0
0
LINE
5
973
100
AcDbEntity
8
0
100
AcDbLine
10
198.42785042584052
20
116.09217533244919
30
0
11
198.42785042584052
21
102.19217533470341
31
0
0
LINE
5
974
100
AcDbEntity
8
0
100
AcDbLine
10
144.92803721913918
20
196.49204367574328
30
0
11
144.92804609680721
21
199.69208706389534
31
0
0
LINE
5
975
100
AcDbEntity
8
0
100
AcDbLine
10
52.628048508062108
20
116.09220731663552
30
0
11
49.428031359590662
21
116.0922263337485
31
0
0
LINE
5
976
100
AcDbEntity
8
0
100
AcDbLine
10
72.878031359590864
20
199.69208706389534
30
0
11
72.878031359590864
21
196.49204367574322
31
0
0
LINE
5
977
100
AcDbEntity
8
0
100
AcDbLine
10
132.1279272099037
20
196.49204367574328
30
0
11
144.92803721913918
21
196.49204367574328
31
0
0
LINE
5
978
100
AcDbEntity
8
0
100
AcDbLine
10
52.628048508062108
20
102.19217537579229
30
0
11
52.628048508062108
21
116.09220731663552
31
0
0
LINE
5
979
100
AcDbEntity
8
0
100
AcDbLine
10
118.92849288310089
20
199.69208706389534
30
0
11
132.1276921337855
21
199.69208706389534
31
0
0
LINE
5
980
100
AcDbEntity
8
0
100
AcDbLine
10
92.927999587880521
20
196.49204367574322
30
0
11
92.928146859720215
21
199.69208706389534
31
0
0
LINE
5
981
100
AcDbEntity
8
0
100
AcDbLine
10
201.62803135959021
20
143.89218541427601
30
0
11
198.42785042584052
21
143.89207437454959
31
0
0
LINE
5
982
100
AcDbEntity
8
0
100
AcDbLine
10
52.628048508062129
20
143.89217533244909
30
0
11
49.428083871011111
21
143.89217533244909
31
0
0
LINE
5
983
100
AcDbEntity
8
0
100
AcDbLine
10
106.12803076955251
20
199.69208706389534
30
0
11
106.128031219603
21
196.49204367574322
31
0
0
LINE
5
984
100
AcDbEntity
8
0
100
AcDbLine
10
-202.78259995891108
20
55.140311917778853
30
0
11
-202.78260000000012
21
-90.659490000000034
31
0
0
LINE
5
985
100
AcDbEntity
8
0
100
AcDbLine
10
-258.58259995665713
20
58.340311917778848
30
0
11
-244.48261003848373
21
58.340492851528573
31
0
0
LINE
5
986
100
AcDbEntity
8
0
100
AcDbLine
10
-230.78259995665712
20
55.140311917778853
30
0
11
-230.78259995665695
21
58.340454265422991
31
0
0
LINE
5
987
100
AcDbEntity
8
0
100
AcDbLine
10
-523.58259999999996
20
75.051940972606488
30
0
11
-523.58259999999996
21
60.951943490119469
31
0
0
LINE
5
988
100
AcDbEntity
8
0
100
AcDbLine
10
198.42785042584052
20
143.89207437454959
30
0
11
198.42785042584052
21
130.19217533244921
31
0
0
LINE
5
989
100
AcDbEntity
8
0
100
AcDbLine
10
201.62785042584051
20
157.99217533244919
30
0
11
201.62803135959021
21
143.89218541427601
31
0
0
LINE
5
990
100
AcDbEntity
8
0
100
AcDbLine
10
-244.48249899875731
20
55.140311917778853
30
0
11
-230.78259995665712
21
55.140311917778853
31
0
0
LINE
5
991
100
AcDbEntity
8
0
100
AcDbLine
10
178.17803135959022
20
199.69204367574321
30
0
11
198.42785042584052
21
199.69207437229531
31
0
0
LINE
5
992
100
AcDbEntity
8
0
100
AcDbLine
10
132.1276921337855
20
199.69208706389534
30
0
11
132.1279272099037
21
196.49204367574328
31
0
0
LINE
5
993
100
AcDbEntity
8
0
100
AcDbLine
10
201.62799277348461
20
130.19217533244921
30
0
11
201.6280045674371
21
116.09217533244919
31
0
0
LINE
5
994
100
AcDbEntity
8
0
100
AcDbLine
10
49.428031359590683
20
130.19215265203232
30
0
11
52.628048508062129
21
130.19224824227538
31
0
0
LINE
5
995
100
AcDbEntity
8
0
100
AcDbLine
10
-230.78267286648304
20
-90.659490000000034
30
0
11
-244.48259995665697
21
-90.659490000000034
31
0
0
LINE
5
996
100
AcDbEntity
8
0
100
AcDbLine
10
-244.48259995665697
20
-90.659490000000034
30
0
11
-244.48259995665697
21
-93.859454637051044
31
0
0
LINE
5
997
100
AcDbEntity
8
0
100
AcDbLine
10
52.628048508062129
20
130.19224824227538
30
0
11
52.628048508062129
21
143.89217533244909
31
0
0
LINE
5
998
100
AcDbEntity
8
0
100
AcDbLine
10
-272.482599956657
20
-87.459490000000031
30
0
11
-272.482599956657
21
-70.409507148471462
31
0
0
LINE
5
999
100
AcDbEntity
8
0
100
AcDbLine
10
-258.58259995665713
20
-93.859490000000037
30
0
11
-258.58259995665713
21
-90.659490000000034
31
0
0
LINE
5
1000
100
AcDbEntity
8
0
100
AcDbLine
10
-216.68263194084329
20
-90.659490000000034
30
0
11
-216.68265095795607
21
-93.859507148471465
31
0
0
LINE
5
1001
100
AcDbEntity
8
0
100
AcDbLine
10
-216.68265095795607
20
-93.859507148471465
30
0
11
-230.78257727624009
21
-93.859507148471465
31
0
0
LINE
5
1002
100
AcDbEntity
8
0
100
AcDbLine
10
92.928146859720215
20
199.69208706389534
30
0
11
106.12803076955251
21
199.69208706389534
31
0
0
LINE
5
1003
100
AcDbEntity
8
0
100
AcDbLine
10
144.92804609680721
20
199.69208706389534
30
0
11
158.12797239899163
21
199.69208706389534
31
0
0
LINE
5
1004
100
AcDbEntity
8
0
100
AcDbLine
10
-244.48261003848373
20
58.340492851528573
30
0
11
-244.48249899875731
21
55.140311917778853
31
0
0
LINE
5
1005
100
AcDbEntity
8
0
100
AcDbLine
10
-244.48259995665697
20
-93.859454637051044
30
0
11
-258.58259995665713
21
-93.859490000000037
31
0
0
LINE
5
1006
100
AcDbEntity
8
0
100
AcDbLine
10
201.6280045674371
20
116.09217533244919
30
0
11
198.42785042584052
21
116.09217533244919
31
0
0
LINE
5
1007
100
AcDbEntity
8
0
100
AcDbLine
10
-230.78257727624009
20
-93.859507148471465
30
0
11
-230.78267286648304
21
-90.659490000000034
31
0
0
SPLINE
5
1008
100
AcDbEntity
8
0
100
AcDbSpline
70
1064
71
3
72
30
73
26
74
0
42
0.000000001
43
0.0000000001
44
0.0000000001
40
0
40
0
40
0
40
0
40
2.1479045878899999e-05
40
4.2948217858899997e-05
40
8.5856377050500007e-05
40
0.0001715532769317
40
0.00025709388871099999
40
0.00034248138909719999
40
0.00051280801808379999
40
0.00068255931540949996
40
0.00085175923366020002
40
0.0010204310772615999
40
0.0013562685102886001
40
0.0016902573553617
40
0.0020225610477630999
40
0.0026826251802464
40
0.0033376686116732999
40
0.0039886599736439999
40
0.0052810407330677999
40
0.0065658689914647999
40
0.0078472468882193006
40
0.0091286155194233998
40
0.010413413860526801
40
0.0130054312626881
40
0.015679725330741801
40
0.015679725330741801
40
0.015679725330741801
40
0.015679725330741801
10
-487.45069999999998
20
-101.76999000000001
30
0
10
-487.45139084958822
20
-101.76980201780901
30
0
10
-487.45285891094289
20
-101.7700733035696
30
0
10
-487.45570298770753
20
-101.76993102113471
30
0
10
-487.46071646234185
20
-101.76998203279049
30
0
10
-487.46784795858741
20
-101.76984438824221
30
0
10
-487.47640226941473
20
-101.76967699739339
30
0
10
-487.48777183860363
20
-101.76933304916859
30
0
10
-487.5019422322074
20
-101.76873176061139
30
0
10
-487.51888871930652
20
-101.76772004939809
30
0
10
-487.53576078157641
20
-101.76642571596419
30
0
10
-487.55812044014067
20
-101.7643278577157
30
0
10
-487.58587865849648
20
-101.7610109255431
30
0
10
-487.61890055658114
20
-101.7559279812066
30
0
10
-487.66235343587817
20
-101.7477334004363
30
0
10
-487.71578010330404
20
-101.73485127431562
30
0
10
-487.77837496318239
20
-101.715271967243
30
0
10
-487.8592058696147
20
-101.68401069029269
30
0
10
-487.9555947999778
20
-101.63543946045429
30
0
10
-488.06237175518896
20
-101.56312362557151
30
0
10
-488.15886213206062
20
-101.47811846892401
30
0
10
-488.24386736757538
20
-101.38160933088841
30
0
10
-488.34050970192914
20
-101.23892705424529
30
0
10
-488.4270152553097
20
-101.03560202378759
30
0
10
-488.45069999999993
20
-100.85913313560181
30
0
10
-488.45069999999993
20
-100.76999000000001
30
0
0
LINE
5
1009
100
AcDbEntity
8
0
100
AcDbLine
10
-464.05070000000001
20
-101.76999000000001
30
0
11
-487.45069999999998
21
-101.76999000000001
31
0
0
SPLINE
5
1010
100
AcDbEntity
8
0
100
AcDbSpline
70
1064
71
3
72
30
73
26
74
0
42
0.000000001
43
0.0000000001
44
0.0000000001
40
0
40
0
40
0
40
0
40
2.1474902556099999e-05
40
4.2940198904900003e-05
40
8.5840667415099998e-05
40
0.00017152242646300002
40
0.00025704821455490001
40
0.00034242120420799999
40
0.00051271973425839998
40
0.00068244413416940002
40
0.00085161832305020004
40
0.0010202655719406999
40
0.0013560570906308001
40
0.0016900041641019
40
0.0020222699688965998
40
0.0026822690051989001
40
0.0033372599423933998
40
0.0039882096345991002
40
0.0052805335440448999
40
0.0065653318894002997
40
0.0078467005337814998
40
0.0091280784533576999
40
0.0104129067455218
40
0.0130050733521522
40
0.015679720921447499
40
0.015679720921447499
40
0.015679720921447499
40
0.015679720921447499
10
-463.05069999999995
20
-100.76999000000001
30
0
10
-463.05088793298307
20
-100.77068071984529
30
0
10
-463.05061671713463
20
-100.77214850190551
30
0
10
-463.0507589646117
20
-100.77499206067301
30
0
10
-463.05070796576945
20
-100.7800046416275
30
0
10
-463.05084557906116
20
-100.78713488475161
30
0
10
-463.05101293327169
20
-100.79568771295459
30
0
10
-463.05135680686539
20
-100.80705536920249
30
0
10
-463.05195796683529
20
-100.8212234489977
30
0
10
-463.05296946256902
20
-100.8381672530966
30
0
10
-463.05426352370631
20
-100.8550367543765
30
0
10
-463.05636095253976
20
-100.8773932309321
30
0
10
-463.05967722160005
20
-100.90514775740731
30
0
10
-463.06475916060742
20
-100.9381655729612
30
0
10
-463.07295220702684
20
-100.9816138291726
30
0
10
-463.08583203487979
20
-101.03503570458351
30
0
10
-463.10540796463494
20
-101.0976260412326
30
0
10
-463.13666443238964
20
-101.17845339305919
30
0
10
-463.18522901060066
20
-101.2748407815608
30
0
10
-463.25753644413794
20
-101.3816194855371
30
0
10
-463.34253431439032
20
-101.47811492386688
30
0
10
-463.43903840164529
20
-101.56312744245581
30
0
10
-463.58171996895857
20
-101.65978215102429
30
0
10
-463.78505884312
20
-101.74630289052429
30
0
10
-463.96154508102347
20
-101.76999000000001
30
0
10
-464.05070000000001
20
-101.76999000000001
30
0
0
LINE
5
1011
100
AcDbEntity
8
0
100
AcDbLine
10
-463.05069999999995
20
-99.769990000000035
30
0
11
-463.05069999999995
21
-100.76999000000001
31
0
0
SPLINE
5
1012
100
AcDbEntity
8
0
100
AcDbSpline
70
1064
71
3
72
30
73
26
74
0
42
0.000000001
43
0.0000000001
44
0.0000000001
40
0
40
0
40
0
40
0
40
2.1478798542500001e-05
40
4.2947970603100002e-05
40
8.5856129370800001e-05
40
0.0001715530237876
40
0.00025709361927970002
40
0.0003424810873392
40
0.0005128075846659
40
0.00068255862696570005
40
0.00085175813006100015
40
0.0010204293638348
40
0.0013562648750352999
40
0.0016902506611466001
40
0.0020225499632602999
40
0.0026826007758883998
40
0.0033376241351651
40
0.0039885884232464999
40
0.0052808957888938997
40
0.0065656325812216004
40
0.0078469163966486
40
0.0091282094859023999
40
0.0104129762215597
40
0.0130051727161533
40
0.015680155052992199
40
0.015680155052992199
40
0.015680155052992199
40
0.015680155052992199
10
-464.05070000000001
20
-98.769990000000035
30
0
10
-464.05000914292259
20
-98.770177923257165
30
0
10
-464.0485411125054
20
-98.769906721256135
30
0
10
-464.04569703308829
20
-98.770048959611429
30
0
10
-464.04068356532855
20
-98.769997958247075
30
0
10
-464.033552065604
20
-98.770135548525275
30
0
10
-464.02499775617031
20
-98.770302863621481
30
0
10
-464.01362818827897
20
-98.770646662261129
30
0
10
-463.99945779833877
20
-98.771247690077729
30
0
10
-463.98251131282905
20
-98.772258969088597
30
0
10
-463.96563925215787
20
-98.773552756599571
30
0
10
-463.94327961089601
20
-98.775649740190715
30
0
10
-463.91552142202829
20
-98.778965312744802
30
0
10
-463.88249953301744
20
-98.784046234604631
30
0
10
-463.83904676216662
20
-98.792237629791259
30
0
10
-463.78562025234953
20
-98.805114933864658
30
0
10
-463.72302539574383
20
-98.824687440179872
30
0
10
-463.64219486249817
20
-98.855938489640991
30
0
10
-463.54580603098441
20
-98.904495630435065
30
0
10
-463.43902836929323
20
-98.976795149039276
30
0
10
-463.34253720133546
20
-99.061786442502751
30
0
10
-463.25753127434405
20
-99.158286256316174
30
0
10
-463.16088517324096
20
-99.300969227505277
30
0
10
-463.0743774387754
20
-99.504325308052316
30
0
10
-463.05069999999995
20
-99.680823922105404
30
0
10
-463.05069999999995
20
-99.769990000000035
30
0
0
LINE
5
1013
100
AcDbEntity
8
0
100
AcDbLine
10
-487.45069999999998
20
-98.769990000000035
30
0
11
-464.05070000000001
21
-98.769990000000035
31
0
0
SPLINE
5
1014
100
AcDbEntity
8
0
100
AcDbSpline
70
1064
71
3
72
30
73
26
74
0
42
0.000000001
43
0.0000000001
44
0.0000000001
40
0
40
0
40
0
40
0
40
2.14826945413e-05
40
4.29557424094e-05
40
8.5871592209500004e-05
40
0.00017158362816159999
40
0.00025713904803970002
40
0.00034254102753070002
40
0.00051289562517950005
40
0.00068267356627410005
40
0.00085189880010999998
40
0.0010205946299478999
40
0.0013564760581514001
40
0.0016905036184559001
40
0.0020228408106874999
40
0.0026829567242514
40
0.0033380325821787999
40
0.0039890385442204997
40
0.0052814027683534999
40
0.0065661694843541004
40
0.0078474625671894008
40
0.0091287463890435995
40
0.010413483201037899
40
0.013005530564086199
40
0.015680159501767502
40
0.015680159501767502
40
0.015680159501767502
40
0.015680159501767502
10
-488.45069999999993
20
-99.769990000000035
30
0
10
-488.45051202971445
20
-99.76929902112964
30
0
10
-488.45078329955618
20
-99.767830719945181
30
0
10
-488.45064102606926
20
-99.764986130794966
30
0
10
-488.45069204085968
20
-99.759971769257334
30
0
10
-488.45055441934539
20
-99.752839016380761
30
0
10
-488.45038706799704
20
-99.744283224236128
30
0
10
-488.45004319511139
20
-99.732911743301941
30
0
10
-488.44944203922421
20
-99.718739039413833
30
0
10
-488.44843054532578
20
-99.701789870729684
30
0
10
-488.44713648610582
20
-99.684915248884181
30
0
10
-488.44503907386252
20
-99.662552425357219
30
0
10
-488.441722839124
20
-99.634790544267432
30
0
10
-488.43664091300957
20
-99.60176457227999
30
0
10
-488.4284479848356
20
-99.558307177715832
30
0
10
-488.41556838409315
20
-99.504875875024283
30
0
10
-488.3959925022051
20
-99.442276494036633
30
0
10
-488.36473664560367
20
-99.361442404531445
30
0
10
-488.31617285525203
20
-99.265052028813557
30
0
10
-488.24386493685353
20
-99.15827611296649
30
0
10
-488.15886635763184
20
-99.061790003599427
30
0
10
-488.06236149277112
20
-98.976791356967738
30
0
10
-487.91967781031906
20
-98.880157626634571
30
0
10
-487.71633556841545
20
-98.793665074199467
30
0
10
-487.53985429792272
20
-98.769990000000035
30
0
10
-487.45069999999998
20
-98.769990000000035
30
0
0
LINE
5
1015
100
AcDbEntity
8
0
100
AcDbLine
10
-488.45069999999993
20
-100.76999000000001
30
0
11
-488.45069999999993
21
-99.769990000000035
31
0
0
SPLINE
5
1016
100
AcDbEntity
8
0
100
AcDbSpline
70
1064
71
3
72
20
73
16
74
0
42
0.000000001
43
0.0000000001
44
0.0000000001
40
0
40
0
40
0
40
0
40
0.20000000000000001
40
0.20000000000000001
40
0.20000000000000001
40
0.20000001000000001
40
0.40000000000000002
40
0.40000000000000002
40
0.40000000000000002
40
0.40000001000000018
40
0.59999999999999998
40
0.59999999999999998
40
0.59999999999999998
40
0.60000001000000025
40
1
40
1
40
1
40
1
10
-465.0875999999999
20
-81.512790000000024
30
0
10
-464.0292
20
-81.512790000000024
30
0
10
-463.50009999999997
20
-80.454390000000018
30
0
10
-463.50009999999997
20
-79.925290000000018
30
0
10
-463.50009999999997
20
-79.925290000000018
30
0
10
-463.50009999999997
20
-78.866890000000026
30
0
10
-464.55840000000012
20
-78.337790000000012
30
0
10
-465.0875999999999
20
-78.337790000000012
30
0
10
-465.0875999999999
20
-78.337790000000012
30
0
10
-466.14589999999998
20
-78.337790000000012
30
0
10
-466.67509999999999
20
-79.396090000000015
30
0
10
-466.67509999999999
20
-79.925290000000018
30
0
10
-466.67509999999999
20
-79.925290000000018
30
0
10
-466.67509999999999
20
-80.983590000000021
30
0
10
-465.61669999999998
20
-81.512790000000024
30
0
10
-465.0875999999999
20
-81.512790000000024
30
0
0
ELLIPSE
5
1017
100
AcDbEntity
8
0
100
AcDbEllipse
10
-447.4024
20
-29.185890000000015
30
0
11
0
21
6.2229999999999999
31
0.0
40
1
41
0
42
6.2831853071795862
0
SPLINE
5
1018
100
AcDbEntity
8
0
100
AcDbSpline
70
1064
71
3
72
30
73
26
74
0
42
0.000000001
43
0.0000000001
44
0.0000000001
40
0
40
0
40
0
40
0
40
2.1479045880700002e-05
40
4.2948217858899997e-05
40
8.5856377051400003e-05
40
0.0001715532769317
40
0.00025709388871099999
40
0.00034248138909899998
40
0.00051280801808469998
40
0.00068255931541039996
40
0.00085175923366290001
40
0.0010204310772607
40
0.0013562685102886001
40
0.0016902573553617
40
0.0020225610477649001
40
0.0026826251802472998
40
0.0033376686116725002
40
0.0039886599736432002
40
0.0052810407330677999
40
0.0065658689914647999
40
0.0078472468882193006
40
0.009128615519424
40
0.0104134138605278
40
0.013005431262688501
40
0.0156797253307423
40
0.0156797253307423
40
0.0156797253307423
40
0.0156797253307423
10
-538.38260000000002
20
-101.76999000000001
30
0
10
-538.38329084958821
20
-101.76980201780891
30
0
10
-538.38475891094288
20
-101.7700733035696
30
0
10
-538.38760298770751
20
-101.76993102113471
30
0
10
-538.39261646234206
20
-101.76998203279049
30
0
10
-538.39974795858768
20
-101.76984438824221
30
0
10
-538.40830226941489
20
-101.76967699739339
30
0
10
-538.41967183860368
20
-101.76933304916859
30
0
10
-538.43384223220778
20
-101.76873176061139
30
0
10
-538.45078871930707
20
-101.76772004939801
30
0
10
-538.46766078157646
20
-101.7664257159643
30
0
10
-538.49002044014094
20
-101.7643278577156
30
0
10
-538.51777865849658
20
-101.7610109255431
30
0
10
-538.55080055658118
20
-101.7559279812065
30
0
10
-538.5942534358785
20
-101.7477334004363
30
0
10
-538.6476801033042
20
-101.73485127431562
30
0
10
-538.71027496318209
20
-101.7152719672429
30
0
10
-538.79110586961497
20
-101.68401069029269
30
0
10
-538.8874947999775
20
-101.63543946045439
30
0
10
-538.99427175518906
20
-101.56312362557151
30
0
10
-539.09076213206038
20
-101.47811846892401
30
0
10
-539.17576736757542
20
-101.38160933088841
30
0
10
-539.27240970192929
20
-101.23892705424529
30
0
10
-539.35891525530951
20
-101.03560202378759
30
0
10
-539.38260000000002
20
-100.85913313560181
30
0
10
-539.38260000000002
20
-100.76999000000001
30
0
0
LINE
5
1019
100
AcDbEntity
8
0
100
AcDbLine
10
-514.98259999999982
20
-101.76999000000001
30
0
11
-538.38260000000002
21
-101.76999000000001
31
0
0
SPLINE
5
1020
100
AcDbEntity
8
0
100
AcDbSpline
70
1064
71
3
72
30
73
26
74
0
42
0.000000001
43
0.0000000001
44
0.0000000001
40
0
40
0
40
0
40
0
40
2.1474902556099999e-05
40
4.2940198904900003e-05
40
8.5840667415099998e-05
40
0.00017152242646300002
40
0.00025704821455479999
40
0.00034242120420799999
40
0.00051271973425839998
40
0.00068244413416929995
40
0.00085161832305020004
40
0.0010202655719406999
40
0.0013560570906308001
40
0.0016900041641019
40
0.0020222699688967
40
0.0026822690051991
40
0.0033372599423933998
40
0.0039882096345991002
40
0.0052805335440445
40
0.0065653318893994003
40
0.0078467005337817999
40
0.0091280784533578994
40
0.0104129067455213
40
0.013005073352150899
40
0.0156797209214453
40
0.0156797209214453
40
0.0156797209214453
40
0.0156797209214453
10
-513.98260000000005
20
-100.76999000000001
30
0
10
-513.98278793298334
20
-100.77068071984529
30
0
10
-513.98251671713467
20
-100.77214850190551
30
0
10
-513.9826589646118
20
-100.77499206067301
30
0
10
-513.98260796576926
20
-100.7800046416275
30
0
10
-513.98274557906166
20
-100.78713488475161
30
0
10
-513.98291293327179
20
-100.79568771295459
30
0
10
-513.9832568068656
20
-100.80705536920249
30
0
10
-513.98385796683544
20
-100.8212234489977
30
0
10
-513.98486946256889
20
-100.83816725309671
30
0
10
-513.98616352370652
20
-100.8550367543765
30
0
10
-513.98826095253969
20
-100.8773932309322
30
0
10
-513.99157722160032
20
-100.90514775740731
30
0
10
-513.99665916060758
20
-100.9381655729612
30
0
10
-514.00485220702717
20
-100.9816138291726
30
0
10
-514.01773203488028
20
-101.03503570458351
30
0
10
-514.03730796463492
20
-101.0976260412326
30
0
10
-514.06856443238996
20
-101.17845339305919
30
0
10
-514.11712901060059
20
-101.2748407815608
30
0
10
-514.18943644413798
20
-101.38161948553721
30
0
10
-514.27443431439076
20
-101.4781149238668
30
0
10
-514.37093840164528
20
-101.56312744245581
30
0
10
-514.51361996895855
20
-101.65978215102439
30
0
10
-514.71695884311964
20
-101.74630289052429
30
0
10
-514.8934450810234
20
-101.76999000000001
30
0
10
-514.98259999999982
20
-101.76999000000001
30
0
0
LINE
5
1021
100
AcDbEntity
8
0
100
AcDbLine
10
-513.98260000000005
20
-99.769990000000035
30
0
11
-513.98260000000005
21
-100.76999000000001
31
0
0
SPLINE
5
1022
100
AcDbEntity
8
0
100
AcDbSpline
70
1064
71
3
72
30
73
26
74
0
42
0.000000001
43
0.0000000001
44
0.0000000001
40
0
40
0
40
0
40
0
40
2.1478798542500001e-05
40
4.2947970603100002e-05
40
8.5856129370800001e-05
40
0.0001715530237876
40
0.00025709361927970002
40
0.0003424810873392
40
0.0005128075846659
40
0.00068255862696570005
40
0.00085175813006100015
40
0.0010204293638357001
40
0.0013562648750344
40
0.0016902506611456999
40
0.0020225499632594
40
0.0026826007758874999
40
0.0033376241351659001
40
0.0039885884232447998
40
0.0052808957888931
40
0.0065656325812200001
40
0.0078469163966469989
40
0.0091282094859002003
40
0.010412976221557501
40
0.013005172716151101
40
0.015680155052989999
40
0.015680155052989999
40
0.015680155052989999
40
0.015680155052989999
10
-514.98259999999982
20
-98.769990000000035
30
0
10
-514.98190914292252
20
-98.770177923257165
30
0
10
-514.98044111250545
20
-98.769906721256135
30
0
10
-514.97759703308827
20
-98.770048959611429
30
0
10
-514.97258356532859
20
-98.769997958247075
30
0
10
-514.96545206560393
20
-98.770135548525275
30
0
10
-514.95689775617006
20
-98.770302863621481
30
0
10
-514.94552818827879
20
-98.770646662261129
30
0
10
-514.93135779833869
20
-98.771247690077729
30
0
10
-514.91441131282909
20
-98.772258969088597
30
0
10
-514.89753925215769
20
-98.773552756599571
30
0
10
-514.87517961089577
20
-98.775649740190744
30
0
10
-514.84742142202822
20
-98.778965312744845
30
0
10
-514.81439953301719
20
-98.784046234604673
30
0
10
-514.77094676216677
20
-98.792237629791259
30
0
10
-514.71752025234957
20
-98.805114933864729
30
0
10
-514.65492539574359
20
-98.824687440179815
30
0
10
-514.57409486249821
20
-98.855938489641062
30
0
10
-514.47770603098445
20
-98.904495630435008
30
0
10
-514.3709283692931
20
-98.976795149039305
30
0
10
-514.27443720133533
20
-99.061786442502736
30
0
10
-514.18943127434454
20
-99.158286256316174
30
0
10
-514.09278517324094
20
-99.300969227505277
30
0
10
-514.00627743877567
20
-99.504325308052316
30
0
10
-513.98260000000005
20
-99.680823922105404
30
0
10
-513.98260000000005
20
-99.769990000000035
30
0
0
LINE
5
1023
100
AcDbEntity
8
0
100
AcDbLine
10
-538.38260000000002
20
-98.769990000000035
30
0
11
-514.98259999999982
21
-98.769990000000035
31
0
0
SPLINE
5
1024
100
AcDbEntity
8
0
100
AcDbSpline
70
1064
71
3
72
30
73
26
74
0
42
0.000000001
43
0.0000000001
44
0.0000000001
40
0
40
0
40
0
40
0
40
2.14826945413e-05
40
4.29557424094e-05
40
8.5871592209500004e-05
40
0.00017158362816159999
40
0.00025713904803970002
40
0.00034254102753070002
40
0.00051289562517960001
40
0.00068267356627420002
40
0.00085189880010990001
40
0.0010205946299481001
40
0.0013564760581514001
40
0.0016905036184560001
40
0.0020228408106873
40
0.0026829567242517998
40
0.0033380325821789
40
0.0039890385442203002
40
0.0052814027683533004
40
0.0065661694843543996
40
0.0078474625671896992
40
0.0091287463890438996
40
0.010413483201038199
40
0.013005530564086499
40
0.0156801595017678
40
0.0156801595017678
40
0.0156801595017678
40
0.0156801595017678
10
-539.38260000000002
20
-99.769990000000035
30
0
10
-539.3824120297146
20
-99.76929902112964
30
0
10
-539.38268329955645
20
-99.767830719945167
30
0
10
-539.38254102606891
20
-99.764986130794966
30
0
10
-539.38259204086046
20
-99.759971769257305
30
0
10
-539.38245441934532
20
-99.75283901638079
30
0
10
-539.38228706799748
20
-99.744283224236128
30
0
10
-539.38194319511103
20
-99.732911743301983
30
0
10
-539.38134203922425
20
-99.718739039413833
30
0
10
-539.38033054532593
20
-99.701789870729684
30
0
10
-539.37903648610609
20
-99.684915248884124
30
0
10
-539.37693907386245
20
-99.662552425357219
30
0
10
-539.3736228391241
20
-99.634790544267403
30
0
10
-539.36854091300972
20
-99.601764572280004
30
0
10
-539.36034798483581
20
-99.558307177715761
30
0
10
-539.34746838409308
20
-99.504875875024354
30
0
10
-539.32789250220526
20
-99.442276494036633
30
0
10
-539.29663664560383
20
-99.361442404531431
30
0
10
-539.2480728552523
20
-99.265052028813514
30
0
10
-539.17576493685351
20
-99.15827611296649
30
0
10
-539.09076635763176
20
-99.061790003599427
30
0
10
-538.99426149277133
20
-98.976791356967738
30
0
10
-538.8515778103191
20
-98.880157626634571
30
0
10
-538.64823556841543
20
-98.793665074199467
30
0
10
-538.47175429792276
20
-98.769990000000035
30
0
10
-538.38260000000002
20
-98.769990000000035
30
0
0
LINE
5
1025
100
AcDbEntity
8
0
100
AcDbLine
10
-539.38260000000002
20
-100.76999000000001
30
0
11
-539.38260000000002
21
-99.769990000000035
31
0
0
SPLINE
5
1026
100
AcDbEntity
8
0
100
AcDbSpline
70
1064
71
3
72
20
73
16
74
0
42
0.000000001
43
0.0000000001
44
0.0000000001
40
0
40
0
40
0
40
0
40
0.20000000000000001
40
0.20000000000000001
40
0.20000000000000001
40
0.20000001000000001
40
0.40000000000000002
40
0.40000000000000002
40
0.40000000000000002
40
0.40000001000000018
40
0.59999999999999998
40
0.59999999999999998
40
0.59999999999999998
40
0.60000001000000025
40
1
40
1
40
1
40
1
10
-323.1859
20
-31.954490000000032
30
0
10
-323.1859
20
-33.01289000000002
30
0
10
-322.1275
20
-33.541990000000013
30
0
10
-321.59840000000003
20
-33.541990000000013
30
0
10
-321.59840000000003
20
-33.541990000000013
30
0
10
-320.54000000000002
20
-33.541990000000013
30
0
10
-320.01090000000011
20
-32.483690000000017
30
0
10
-320.01090000000011
20
-31.954490000000032
30
0
10
-320.01090000000011
20
-31.954490000000032
30
0
10
-320.01090000000011
20
-30.896189999999997
30
0
10
-321.06920000000002
20
-30.366990000000019
30
0
10
-321.59840000000003
20
-30.366990000000019
30
0
10
-321.59840000000003
20
-30.366990000000019
30
0
10
-322.65669999999994
20
-30.366990000000019
30
0
10
-323.1859
20
-31.425390000000021
30
0
10
-323.1859
20
-31.954490000000032
30
0
0
SPLINE
5
1027
100
AcDbEntity
8
0
100
AcDbSpline
70
1064
71
3
72
20
73
16
74
0
42
0.000000001
43
0.0000000001
44
0.0000000001
40
0
40
0
40
0
40
0
40
0.20000000000000001
40
0.20000000000000001
40
0.20000000000000001
40
0.20000001000000001
40
0.40000000000000002
40
0.40000000000000002
40
0.40000000000000002
40
0.40000001000000018
40
0.59999999999999998
40
0.59999999999999998
40
0.59999999999999998
40
0.60000001000000025
40
1
40
1
40
1
40
1
10
-323.1859
20
4.2405099999999871
30
0
10
-323.1859
20
3.1821099999999798
30
0
10
-322.1275
20
2.653010000000009
30
0
10
-321.59840000000003
20
2.653010000000009
30
0
10
-321.59840000000003
20
2.653010000000009
30
0
10
-320.54000000000002
20
2.653010000000009
30
0
10
-320.01090000000011
20
3.7113099999999832
30
0
10
-320.01090000000011
20
4.2405099999999871
30
0
10
-320.01090000000011
20
4.2405099999999871
30
0
10
-320.01090000000011
20
5.298809999999996
30
0
10
-321.06920000000002
20
5.828009999999999
30
0
10
-321.59840000000003
20
5.828009999999999
30
0
10
-321.59840000000003
20
5.828009999999999
30
0
10
-322.65669999999994
20
5.828009999999999
30
0
10
-323.1859
20
4.7696099999999584
30
0
10
-323.1859
20
4.2405099999999871
30
0
0
SPLINE
5
1028
100
AcDbEntity
8
0
100
AcDbSpline
70
1064
71
3
72
30
73
26
74
0
42
0.000000001
43
0.0000000001
44
0.0000000001
40
0
40
0
40
0
40
0
40
2.1479045878899999e-05
40
4.2948217858899997e-05
40
8.5856377050500007e-05
40
0.0001715532769317
40
0.00025709388871099999
40
0.00034248138909719999
40
0.00051280801808379999
40
0.00068255931540949996
40
0.00085175923366020002
40
0.0010204310772615999
40
0.0013562685102886001
40
0.0016902573553617
40
0.0020225610477630999
40
0.0026826251802464
40
0.0033376686116732999
40
0.0039886599736439999
40
0.0052810407330677999
40
0.0065658689914647999
40
0.0078472468882192
40
0.0091286155194232992
40
0.0104134138605267
40
0.013005431262687999
40
0.015679725330741801
40
0.015679725330741801
40
0.015679725330741801
40
0.015679725330741801
10
-487.45069999999998
20
-124.24898999999999
30
0
10
-487.45139084958822
20
-124.24880201780901
30
0
10
-487.45285891094289
20
-124.2490733035696
30
0
10
-487.45570298770753
20
-124.24893102113471
30
0
10
-487.46071646234185
20
-124.24898203279051
30
0
10
-487.46784795858741
20
-124.2488443882422
30
0
10
-487.4764022694149
20
-124.2486769973933
30
0
10
-487.48777183860335
20
-124.24833304916859
30
0
10
-487.50194223220745
20
-124.2477317606114
30
0
10
-487.51888871930674
20
-124.24672004939802
30
0
10
-487.53576078157636
20
-124.2454257159642
30
0
10
-487.55812044014084
20
-124.2433278577157
30
0
10
-487.58587865849643
20
-124.24001092554309
30
0
10
-487.61890055658114
20
-124.23492798120661
30
0
10
-487.66235343587812
20
-124.2267334004363
30
0
10
-487.71578010330404
20
-124.2138512743156
30
0
10
-487.77837496318227
20
-124.194271967243
30
0
10
-487.85920586961493
20
-124.16301069029268
30
0
10
-487.95559479997746
20
-124.11443946045439
30
0
10
-488.06237175518896
20
-124.04212362557152
30
0
10
-488.15886213206045
20
-123.95711846892399
30
0
10
-488.24386736757526
20
-123.86060933088839
30
0
10
-488.34050970192897
20
-123.71792705424528
30
0
10
-488.4270152553097
20
-123.51460202378769
30
0
10
-488.45069999999993
20
-123.33813313560182
30
0
10
-488.45069999999993
20
-123.24899000000001
30
0
0
LINE
5
1029
100
AcDbEntity
8
0
100
AcDbLine
10
-464.05070000000001
20
-124.24898999999999
30
0
11
-487.45069999999998
21
-124.24898999999999
31
0
0
SPLINE
5
1030
100
AcDbEntity
8
0
100
AcDbSpline
70
1064
71
3
72
30
73
26
74
0
42
0.000000001
43
0.0000000001
44
0.0000000001
40
0
40
0
40
0
40
0
40
2.1474902556099999e-05
40
4.2940198904799998e-05
40
8.5840667415200002e-05
40
0.00017152242646300002
40
0.00025704821455479999
40
0.00034242120420810001
40
0.00051271973425850005
40
0.00068244413416940002
40
0.0008516183230503
40
0.0010202655719408001
40
0.0013560570906309001
40
0.0016900041641019
40
0.0020222699688967
40
0.0026822690051989998
40
0.0033372599423935
40
0.0039882096345992
40
0.0052805335440449996
40
0.0065653318894004003
40
0.0078467005337816004
40
0.0091280784533576999
40
0.010412906745521901
40
0.0130050733521522
40
0.015679720921447499
40
0.015679720921447499
40
0.015679720921447499
40
0.015679720921447499
10
-463.05069999999995
20
-123.24899000000001
30
0
10
-463.05088793298307
20
-123.24968071984529
30
0
10
-463.05061671713463
20
-123.25114850190552
30
0
10
-463.05075896461153
20
-123.253992060673
30
0
10
-463.05070796576956
20
-123.2590046416275
30
0
10
-463.05084557906093
20
-123.26613488475161
30
0
10
-463.05101293327203
20
-123.2746877129546
30
0
10
-463.05135680686533
20
-123.2860553692025
30
0
10
-463.05195796683518
20
-123.30022344899777
30
0
10
-463.05296946256897
20
-123.3171672530967
30
0
10
-463.05426352370631
20
-123.33403675437651
30
0
10
-463.05636095253976
20
-123.35639323093221
30
0
10
-463.0596772216
20
-123.38414775740731
30
0
10
-463.06475916060742
20
-123.41716557296118
30
0
10
-463.07295220702684
20
-123.46061382917259
30
0
10
-463.08583203487979
20
-123.51403570458351
30
0
10
-463.10540796463494
20
-123.5766260412326
30
0
10
-463.13666443238964
20
-123.6574533930592
30
0
10
-463.18522901060066
20
-123.75384078156081
30
0
10
-463.25753644413788
20
-123.8606194855371
30
0
10
-463.34253431439043
20
-123.9571149238669
30
0
10
-463.43903840164529
20
-124.04212744245581
30
0
10
-463.58171996895851
20
-124.1387821510244
30
0
10
-463.78505884311994
20
-124.2253028905243
30
0
10
-463.96154508102347
20
-124.24898999999999
30
0
10
-464.05070000000001
20
-124.24898999999999
30
0
0
LINE
5
1031
100
AcDbEntity
8
0
100
AcDbLine
10
-463.05069999999995
20
-122.24899000000001
30
0
11
-463.05069999999995
21
-123.24899000000001
31
0
0
SPLINE
5
1032
100
AcDbEntity
8
0
100
AcDbSpline
70
1064
71
3
72
30
73
26
74
0
42
0.000000001
43
0.0000000001
44
0.0000000001
40
0
40
0
40
0
40
0
40
2.1478798542500001e-05
40
4.2947970603100002e-05
40
8.5856129370800001e-05
40
0.0001715530237876
40
0.00025709361927970002
40
0.0003424810873392
40
0.0005128075846659
40
0.00068255862696570005
40
0.00085175813006100015
40
0.0010204293638348
40
0.0013562648750352999
40
0.0016902506611466001
40
0.0020225499632602999
40
0.0026826007758883998
40
0.0033376241351651
40
0.0039885884232464999
40
0.0052808957888940003
40
0.0065656325812216004
40
0.0078469163966486
40
0.0091282094859025005
40
0.0104129762215597
40
0.0130051727161532
40
0.015680155052992199
40
0.015680155052992199
40
0.015680155052992199
40
0.015680155052992199
10
-464.05070000000001
20
-121.24899000000001
30
0
10
-464.05000914292259
20
-121.24917792325721
30
0
10
-464.04854111250575
20
-121.24890672125609
30
0
10
-464.04569703308823
20
-121.2490489596114
30
0
10
-464.04068356532883
20
-121.248997958247
30
0
10
-464.033552065604
20
-121.24913554852527
30
0
10
-464.02499775617031
20
-121.24930286362141
30
0
10
-464.01362818827897
20
-121.24964666226111
30
0
10
-463.99945779833865
20
-121.25024769007769
30
0
10
-463.98251131282939
20
-121.25125896908861
30
0
10
-463.96563925215781
20
-121.25255275659961
30
0
10
-463.94327961089607
20
-121.25464974019069
30
0
10
-463.91552142202829
20
-121.25796531274482
30
0
10
-463.88249953301715
20
-121.26304623460462
30
0
10
-463.83904676216679
20
-121.27123762979119
30
0
10
-463.78562025234953
20
-121.28411493386463
30
0
10
-463.72302539574366
20
-121.30368744017989
30
0
10
-463.64219486249846
20
-121.334938489641
30
0
10
-463.54580603098441
20
-121.38349563043511
30
0
10
-463.43902836929294
20
-121.45579514903929
30
0
10
-463.34253720133563
20
-121.54078644250269
30
0
10
-463.25753127434405
20
-121.63728625631609
30
0
10
-463.16088517324079
20
-121.7799692275053
30
0
10
-463.07437743877534
20
-121.9833253080523
30
0
10
-463.05069999999995
20
-122.15982392210537
30
0
10
-463.05069999999995
20
-122.24899000000001
30
0
0
LINE
5
1033
100
AcDbEntity
8
0
100
AcDbLine
10
-487.45069999999998
20
-121.24899000000001
30
0
11
-464.05070000000001
21
-121.24899000000001
31
0
0
SPLINE
5
1034
100
AcDbEntity
8
0
100
AcDbSpline
70
1064
71
3
72
30
73
26
74
0
42
0.000000001
43
0.0000000001
44
0.0000000001
40
0
40
0
40
0
40
0
40
2.14826945413e-05
40
4.29557424094e-05
40
8.5871592209500004e-05
40
0.00017158362816159999
40
0.00025713904803970002
40
0.00034254102753070002
40
0.00051289562517950005
40
0.00068267356627410005
40
0.00085189880010999998
40
0.0010205946299478
40
0.0013564760581514001
40
0.0016905036184557999
40
0.0020228408106874999
40
0.0026829567242512998
40
0.0033380325821787001
40
0.0039890385442203002
40
0.0052814027683534999
40
0.0065661694843540007
40
0.0078474625671893002
40
0.0091287463890435006
40
0.0104134832010377
40
0.0130055305640861
40
0.015680159501767401
40
0.015680159501767401
40
0.015680159501767401
40
0.015680159501767401
10
-488.45069999999993
20
-122.24899000000001
30
0
10
-488.45051202971445
20
-122.2482990211296
30
0
10
-488.45078329955595
20
-122.24683071994511
30
0
10
-488.45064102606926
20
-122.24398613079489
30
0
10
-488.45069204086002
20
-122.2389717692573
30
0
10
-488.45055441934517
20
-122.23183901638069
30
0
10
-488.45038706799727
20
-122.22328322423608
30
0
10
-488.45004319511139
20
-122.211911743302
30
0
10
-488.44944203922387
20
-122.1977390394138
30
0
10
-488.44843054532595
20
-122.1807898707296
30
0
10
-488.44713648610565
20
-122.16391524888409
30
0
10
-488.44503907386286
20
-122.14155242535719
30
0
10
-488.44172283912394
20
-122.1137905442674
30
0
10
-488.43664091300968
20
-122.08076457228
30
0
10
-488.4284479848356
20
-122.0373071777158
30
0
10
-488.41556838409315
20
-121.9838758750243
30
0
10
-488.39599250220533
20
-121.9212764940366
30
0
10
-488.36473664560356
20
-121.8404424045314
30
0
10
-488.3161728552522
20
-121.74405202881351
30
0
10
-488.24386493685353
20
-121.63727611296652
30
0
10
-488.15886635763155
20
-121.54079000359941
30
0
10
-488.0623614927714
20
-121.45579135696769
30
0
10
-487.91967781031883
20
-121.3591576266346
30
0
10
-487.71633556841573
20
-121.2726650741994
30
0
10
-487.53985429792272
20
-121.24899000000001
30
0
10
-487.45069999999998
20
-121.24899000000001
30
0
0
LINE
5
1035
100
AcDbEntity
8
0
100
AcDbLine
10
-488.45069999999993
20
-123.24899000000001
30
0
11
-488.45069999999993
21
-122.24899000000001
31
0
0
SPLINE
5
1036
100
AcDbEntity
8
0
100
AcDbSpline
70
1064
71
3
72
20
73
16
74
0
42
0.000000001
43
0.0000000001
44
0.0000000001
40
0
40
0
40
0
40
0
40
0.20000000000000001
40
0.20000000000000001
40
0.20000000000000001
40
0.20000001000000001
40
0.40000000000000002
40
0.40000000000000002
40
0.40000000000000002
40
0.40000001000000018
40
0.59999999999999998
40
0.59999999999999998
40
0.59999999999999998
40
0.60000001000000025
40
1
40
1
40
1
40
1
10
-383.17930000000013
20
40.435509999999972
30
0
10
-383.17930000000013
20
39.377109999999959
30
0
10
-384.23759999999993
20
38.848009999999988
30
0
10
-384.76679999999999
20
38.848009999999988
30
0
10
-384.76679999999999
20
38.848009999999988
30
0
10
-385.82510000000002
20
38.848009999999988
30
0
10
-386.35429999999991
20
39.906309999999962
30
0
10
-386.35429999999991
20
40.435509999999972
30
0
10
-386.35429999999991
20
40.435509999999972
30
0
10
-386.35429999999991
20
41.493809999999982
30
0
10
-385.29600000000005
20
42.023009999999985
30
0
10
-384.76679999999999
20
42.023009999999985
30
0
10
-384.76679999999999
20
42.023009999999985
30
0
10
-383.70849999999996
20
42.023009999999985
30
0
10
-383.17930000000013
20
40.964609999999936
30
0
10
-383.17930000000013
20
40.435509999999972
30
0
0
SPLINE
5
1037
100
AcDbEntity
8
0
100
AcDbSpline
70
1064
71
3
72
20
73
16
74
0
42
0.000000001
43
0.0000000001
44
0.0000000001
40
0
40
0
40
0
40
0
40
0.20000000000000001
40
0.20000000000000001
40
0.20000000000000001
40
0.20000001000000001
40
0.40000000000000002
40
0.40000000000000002
40
0.40000000000000002
40
0.40000001000000018
40
0.59999999999999998
40
0.59999999999999998
40
0.59999999999999998
40
0.60000001000000025
40
1
40
1
40
1
40
1
10
-147.14960000000002
20
-51.185890000000008
30
0
10
-147.14960000000002
20
-48.555590000000031
30
0
10
-145.01740000000001
20
-46.423390000000033
30
0
10
-142.3871
20
-46.423390000000033
30
0
10
-142.3871
20
-46.423390000000033
30
0
10
-139.75679999999988
20
-46.423390000000033
30
0
10
-137.62460000000002
20
-48.555590000000031
30
0
10
-137.62460000000002
20
-51.185890000000008
30
0
10
-137.62460000000002
20
-51.185890000000008
30
0
10
-137.62460000000002
20
-53.81619000000002
30
0
10
-139.75679999999988
20
-55.948390000000018
30
0
10
-142.3871
20
-55.948390000000018
30
0
10
-142.3871
20
-55.948390000000018
30
0
10
-145.01740000000001
20
-55.948390000000018
30
0
10
-147.14960000000002
20
-53.81619000000002
30
0
10
-147.14960000000002
20
-51.185890000000008
30
0
0
ELLIPSE
5
1038
100
AcDbEntity
8
0
100
AcDbEllipse
10
-447.4024
20
37.666910000000009
30
0
11
0
21
6.2229999999999999
31
0.0
40
1
41
0
42
6.2831853071795862
0
SPLINE
5
1039
100
AcDbEntity
8
0
100
AcDbSpline
70
1064
71
3
72
20
73
16
74
0
42
0.000000001
43
0.0000000001
44
0.0000000001
40
0
40
0
40
0
40
0
40
0.20000000000000001
40
0.20000000000000001
40
0.20000000000000001
40
0.20000001000000001
40
0.40000000000000002
40
0.40000000000000002
40
0.40000000000000002
40
0.40000001000000018
40
0.59999999999999998
40
0.59999999999999998
40
0.59999999999999998
40
0.60000001000000025
40
1
40
1
40
1
40
1
10
-165.13270000000003
20
-2.2594899999999991
30
0
10
-165.13270000000003
20
-3.5927900000000079
30
0
10
-166.46600000000001
20
-4.2594900000000111
30
0
10
-167.13269999999991
20
-4.2594900000000111
30
0
10
-167.13269999999991
20
-4.2594900000000111
30
0
10
-168.46599999999992
20
-4.2594900000000111
30
0
10
-169.1327
20
-2.9261900000000018
30
0
10
-169.1327
20
-2.2594899999999991
30
0
10
-169.1327
20
-2.2594899999999991
30
0
10
-169.1327
20
-0.92619000000002694
30
0
10
-167.79930000000002
20
-0.25949000000000699
30
0
10
-167.13269999999991
20
-0.25949000000000699
30
0
10
-167.13269999999991
20
-0.25949000000000699
30
0
10
-165.79929999999996
20
-0.25949000000000699
30
0
10
-165.13270000000003
20
-1.592790000000033
30
0
10
-165.13270000000003
20
-2.2594899999999991
30
0
0
ELLIPSE
5
1040
100
AcDbEntity
8
0
100
AcDbEllipse
10
-520.96280000000002
20
-29.185890000000015
30
0
11
0
21
6.2229999999999999
31
0.0
40
1
41
0
42
6.2831853071795862
0
SPLINE
5
1041
100
AcDbEntity
8
0
100
AcDbSpline
70
1064
71
3
72
20
73
16
74
0
42
0.000000001
43
0.0000000001
44
0.0000000001
40
0
40
0
40
0
40
0
40
0.20000000000000001
40
0.20000000000000001
40
0.20000000000000001
40
0.20000001000000001
40
0.40000000000000002
40
0.40000000000000002
40
0.40000000000000002
40
0.40000001000000018
40
0.59999999999999998
40
0.59999999999999998
40
0.59999999999999998
40
0.60000001000000025
40
1
40
1
40
1
40
1
10
-134.13269999999989
20
-33.259490000000028
30
0
10
-134.13269999999989
20
-34.592790000000029
30
0
10
-135.46600000000001
20
-35.25949
30
0
10
-136.13270000000003
20
-35.25949
30
0
10
-136.13270000000003
20
-35.25949
30
0
10
-137.46599999999989
20
-35.25949
30
0
10
-138.1327
20
-33.926190000000027
30
0
10
-138.1327
20
-33.259490000000028
30
0
10
-138.1327
20
-33.259490000000028
30
0
10
-138.1327
20
-31.926189999999998
30
0
10
-136.79929999999999
20
-31.259490000000028
30
0
10
-136.13270000000003
20
-31.259490000000028
30
0
10
-136.13270000000003
20
-31.259490000000028
30
0
10
-134.7992999999999
20
-31.259490000000028
30
0
10
-134.13269999999989
20
-32.592790000000008
30
0
10
-134.13269999999989
20
-33.259490000000028
30
0
0
SPLINE
5
1042
100
AcDbEntity
8
0
100
AcDbSpline
70
1064
71
3
72
30
73
26
74
0
42
0.000000001
43
0.0000000001
44
0.0000000001
40
0
40
0
40
0
40
0
40
2.1479045878399999e-05
40
4.2948217859399997e-05
40
8.5856377051400003e-05
40
0.00017155327693239999
40
0.0002570938887114
40
0.00034248138909790001
40
0.00051280801808359995
40
0.00068255931540829996
40
0.00085175923366160005
40
0.0010204310772611001
40
0.0013562685102890999
40
0.0016902573553622001
40
0.0020225610477632001
40
0.0026826251802472001
40
0.0033376686116717001
40
0.0039886599736433
40
0.0052810407330678997
40
0.0065658689914646004
40
0.0078472468882189988
40
0.0091286155194230008
40
0.0104134138605272
40
0.0130054312626883
40
0.015679725330742598
40
0.015679725330742598
40
0.015679725330742598
40
0.015679725330742598
10
-365.92209999999994
20
41.340509999999988
30
0
10
-365.92191201780901
20
41.341200849588162
30
0
10
-365.92218330356991
20
41.342668910942947
30
0
10
-365.92204102113448
20
41.345512987707451
30
0
10
-365.92209203279072
20
41.350526462342216
30
0
10
-365.92195438824217
20
41.357657958587481
30
0
10
-365.92178699739327
20
41.366212269414888
30
0
10
-365.92144304916883
20
41.377581838603412
30
0
10
-365.92084176061149
20
41.391752232207601
30
0
10
-365.91983004939823
20
41.408698719306678
30
0
10
-365.91853571596397
20
41.425570781576262
30
0
10
-365.91643785771578
20
41.447930440140823
30
0
10
-365.91312092554313
20
41.475688658496452
30
0
10
-365.90803798120646
20
41.508710556581072
30
0
10
-365.89984340043651
20
41.552163435878171
30
0
10
-365.88696127431547
20
41.605590103303982
30
0
10
-365.86738196724309
20
41.668184963182284
30
0
10
-365.83612069029272
20
41.749015869614823
30
0
10
-365.78754946045433
20
41.845404799977352
30
0
10
-365.71523362557139
20
41.952181755189102
30
0
10
-365.6302284689242
20
42.048672132060531
30
0
10
-365.53371933088852
20
42.133677367575359
30
0
10
-365.39103705424532
20
42.230319701929126
30
0
10
-365.18771202378758
20
42.316825255309666
30
0
10
-365.01124313560183
20
42.340509999999973
30
0
10
-364.9221
20
42.340509999999973
30
0
0
LINE
5
1043
100
AcDbEntity
8
0
100
AcDbLine
10
-365.92209999999994
20
17.940509999999993
30
0
11
-365.92209999999994
21
41.340509999999988
31
0
0
SPLINE
5
1044
100
AcDbEntity
8
0
100
AcDbSpline
70
1064
71
3
72
30
73
26
74
0
42
0.000000001
43
0.0000000001
44
0.0000000001
40
0
40
0
40
0
40
0
40
2.14749025568e-05
40
4.2940198904799998e-05
40
8.5840667415000007e-05
40
0.00017152242646329999
40
0.00025704821455520001
40
0.00034242120420780001
40
0.00051271973425869998
40
0.00068244413416979999
40
0.0008516183230509
40
0.0010202655719409
40
0.0013560570906315001
40
0.0016900041641019
40
0.0020222699688963999
40
0.0026822690051994001
40
0.0033372599423938999
40
0.0039882096345994003
40
0.0052805335440452997
40
0.0065653318894008002
40
0.0078467005337824001
40
0.0091280784533592004
40
0.010412906745521601
40
0.0130050733521522
40
0.015679720921447302
40
0.015679720921447302
40
0.015679720921447302
40
0.015679720921447302
10
-364.9221
20
16.940509999999978
30
0
10
-364.92279071984524
20
16.940697932983213
30
0
10
-364.92425850190563
20
16.940426717134656
30
0
10
-364.92710206067295
20
16.940568964611689
30
0
10
-364.93211464162761
20
16.940517965769644
30
0
10
-364.93924488475182
20
16.94065557906135
30
0
10
-364.94779771295464
20
16.940822933271789
30
0
10
-364.95916536920242
20
16.941166806865407
30
0
10
-364.97333344899789
20
16.9417679668353
30
0
10
-364.99027725309656
20
16.942779462568872
30
0
10
-365.00714675437655
20
16.944073523706582
30
0
10
-365.02950323093216
20
16.946170952539422
30
0
10
-365.05725775740729
20
16.949487221600133
30
0
10
-365.09027557296133
20
16.954569160607488
30
0
10
-365.13372382917254
20
16.96276220702703
30
0
10
-365.18714570458371
20
16.975642034879883
30
0
10
-365.24973604123272
20
16.995217964634961
30
0
10
-365.33056339305921
20
17.026474432389659
30
0
10
-365.42695078156095
20
17.075039010600591
30
0
10
-365.53372948553721
20
17.147346444138051
30
0
10
-365.63022492386688
20
17.232344314390438
30
0
10
-365.71523744245604
20
17.328848401645388
30
0
10
-365.81189215102427
20
17.471529968958489
30
0
10
-365.89841289052424
20
17.674868843119832
30
0
10
-365.92209999999994
20
17.851355081023492
30
0
10
-365.92209999999994
20
17.940509999999993
30
0
0
LINE
5
1045
100
AcDbEntity
8
0
100
AcDbLine
10
-363.9221
20
16.940509999999978
30
0
11
-364.9221
21
16.940509999999978
31
0
0
SPLINE
5
1046
100
AcDbEntity
8
0
100
AcDbSpline
70
1064
71
3
72
30
73
26
74
0
42
0.000000001
43
0.0000000001
44
0.0000000001
40
0
40
0
40
0
40
0
40
2.1478798543000001e-05
40
4.2947970602900001e-05
40
8.5856129370600007e-05
40
0.00017155302378879999
40
0.0002570936192802
40
0.00034248108734029998
40
0.00051280758466479997
40
0.00068255862696610001
40
0.0008517581300617
40
0.0010204293638352
40
0.0013562648750352999
40
0.0016902506611454001
40
0.0020225499632606
40
0.0026826007758881001
40
0.0033376241351659999
40
0.0039885884232459994
40
0.0052808957888938
40
0.0065656325812214998
40
0.0078469163966478992
40
0.0091282094859022004
40
0.0104129762215585
40
0.013005172716152201
40
0.015680155052991199
40
0.015680155052991199
40
0.015680155052991199
40
0.015680155052991199
10
-362.9221
20
17.940509999999993
30
0
10
-362.92228792325722
20
17.939819142922534
30
0
10
-362.92201672125611
20
17.938351112505739
30
0
10
-362.92215895961135
20
17.935507033088381
30
0
10
-362.9221079582473
20
17.930493565328668
30
0
10
-362.92224554852538
20
17.92336206560401
30
0
10
-362.92241286362139
20
17.914807756170244
30
0
10
-362.92275666226118
20
17.903438188278852
30
0
10
-362.92335769007769
20
17.8892677983387
30
0
10
-362.9243689690885
20
17.872321312829182
30
0
10
-362.92566275659965
20
17.855449252157818
30
0
10
-362.92775974019082
20
17.833089610895982
30
0
10
-362.93107531274478
20
17.805331422028303
30
0
10
-362.93615623460454
20
17.772309533017257
30
0
10
-362.94434762979131
20
17.728856762166789
30
0
10
-362.95722493386478
20
17.675430252349756
30
0
10
-362.97679744017978
20
17.612835395743708
30
0
10
-363.008048489641
20
17.532004862498237
30
0
10
-363.05660563043494
20
17.435616030984413
30
0
10
-363.12890514903933
20
17.328838369293116
30
0
10
-363.2138964425028
20
17.232347201335401
30
0
10
-363.3103962563161
20
17.147341274344342
30
0
10
-363.45307922750544
20
17.050695173240978
30
0
10
-363.65643530805221
20
16.964187438775468
30
0
10
-363.83293392210538
20
16.940509999999978
30
0
10
-363.9221
20
16.940509999999978
30
0
0
LINE
5
1047
100
AcDbEntity
8
0
100
AcDbLine
10
-362.9221
20
41.340509999999988
30
0
11
-362.9221
21
17.940509999999993
31
0
0
SPLINE
5
1048
100
AcDbEntity
8
0
100
AcDbSpline
70
1064
71
3
72
30
73
26
74
0
42
0.000000001
43
0.0000000001
44
0.0000000001
40
0
40
0
40
0
40
0
40
2.14826945413e-05
40
4.29557424099e-05
40
8.5871592209500004e-05
40
0.0001715836281615
40
0.0002571390480405
40
0.00034254102753030001
40
0.00051289562517969998
40
0.00068267356627470005
40
0.00085189880010930002
40
0.0010205946299480001
40
0.0013564760581516999
40
0.0016905036184559001
40
0.0020228408106867002
40
0.0026829567242507
40
0.0033380325821785999
40
0.0039890385442197997
40
0.0052814027683521
40
0.0065661694843535999
40
0.0078474625671883999
40
0.0091287463890430999
40
0.010413483201038199
40
0.013005530564085601
40
0.015680159501766999
40
0.015680159501766999
40
0.015680159501766999
40
0.015680159501766999
10
-363.9221
20
42.340509999999973
30
0
10
-363.92140902112965
20
42.340322029714621
30
0
10
-363.91994071994509
20
42.340593299556311
30
0
10
-363.91709613079513
20
42.340451026069061
30
0
10
-363.91208176925704
20
42.340502040860201
30
0
10
-363.9049490163809
20
42.340364419345313
30
0
10
-363.89639322423614
20
42.340197067997423
30
0
10
-363.88502174330188
20
42.339853195111068
30
0
10
-363.87084903941394
20
42.339252039224242
30
0
10
-363.85389987072955
20
42.338240545325903
30
0
10
-363.83702524888417
20
42.336946486105802
30
0
10
-363.81466242535726
20
42.334849073862479
30
0
10
-363.78690054426727
20
42.331532839124286
30
0
10
-363.7538745722801
20
42.326450913009587
30
0
10
-363.7104171777159
20
42.318257984835732
30
0
10
-363.65698587502436
20
42.305378384093146
30
0
10
-363.5943864940366
20
42.285802502205243
30
0
10
-363.51355240453159
20
42.254546645603732
30
0
10
-363.41716202881355
20
42.205982855252273
30
0
10
-363.31038611296651
20
42.133674936853502
30
0
10
-363.21390000359952
20
42.048676357631862
30
0
10
-363.12890135696784
20
41.952171492771299
30
0
10
-363.03226762663456
20
41.809487810318764
30
0
10
-362.9457750741995
20
41.606145568415691
30
0
10
-362.9221
20
41.429664297922699
30
0
10
-362.9221
20
41.340509999999988
30
0
0
LINE
5
1049
100
AcDbEntity
8
0
100
AcDbLine
10
-364.9221
20
42.340509999999973
30
0
11
-363.9221
21
42.340509999999973
31
0
0
SPLINE
5
1050
100
AcDbEntity
8
0
100
AcDbSpline
70
1064
71
3
72
20
73
16
74
0
42
0.000000001
43
0.0000000001
44
0.0000000001
40
0
40
0
40
0
40
0
40
0.20000000000000001
40
0.20000000000000001
40
0.20000000000000001
40
0.20000001000000001
40
0.40000000000000002
40
0.40000000000000002
40
0.40000000000000002
40
0.40000001000000018
40
0.59999999999999998
40
0.59999999999999998
40
0.59999999999999998
40
0.60000001000000025
40
1
40
1
40
1
40
1
10
-465.0875999999999
20
-141.50619
30
0
10
-464.0292
20
-141.50619
30
0
10
-463.50009999999997
20
-142.56449000000001
30
0
10
-463.50009999999997
20
-143.09369000000001
30
0
10
-463.50009999999997
20
-143.09369000000001
30
0
10
-463.50009999999997
20
-144.15198999999998
30
0
10
-464.55840000000012
20
-144.68118999999999
30
0
10
-465.0875999999999
20
-144.68118999999999
30
0
10
-465.0875999999999
20
-144.68118999999999
30
0
10
-466.14589999999998
20
-144.68118999999999
30
0
10
-466.67509999999999
20
-143.62289000000001
30
0
10
-466.67509999999999
20
-143.09369000000001
30
0
10
-466.67509999999999
20
-143.09369000000001
30
0
10
-466.67509999999999
20
-142.03539000000001
30
0
10
-465.61669999999998
20
-141.50619
30
0
10
-465.0875999999999
20
-141.50619
30
0
0
SPLINE
5
1051
100
AcDbEntity
8
0
100
AcDbSpline
70
1064
71
3
72
20
73
16
74
0
42
0.000000001
43
0.0000000001
44
0.0000000001
40
0
40
0
40
0
40
0
40
0.20000000000000001
40
0.20000000000000001
40
0.20000000000000001
40
0.20000001000000001
40
0.40000000000000002
40
0.40000000000000002
40
0.40000000000000002
40
0.40000001000000018
40
0.59999999999999998
40
0.59999999999999998
40
0.59999999999999998
40
0.60000001000000025
40
1
40
1
40
1
40
1
10
-354.77010000000001
20
4.2405099999999871
30
0
10
-354.77010000000001
20
3.1821099999999798
30
0
10
-353.71179999999993
20
2.653010000000009
30
0
10
-353.18259999999998
20
2.653010000000009
30
0
10
-353.18259999999998
20
2.653010000000009
30
0
10
-352.12429999999995
20
2.653010000000009
30
0
10
-351.5951
20
3.7113099999999832
30
0
10
-351.5951
20
4.2405099999999871
30
0
10
-351.5951
20
4.2405099999999871
30
0
10
-351.5951
20
5.298809999999996
30
0
10
-352.65340000000003
20
5.828009999999999
30
0
10
-353.18259999999998
20
5.828009999999999
30
0
10
-353.18259999999998
20
5.828009999999999
30
0
10
-354.24090000000001
20
5.828009999999999
30
0
10
-354.77010000000001
20
4.7696099999999584
30
0
10
-354.77010000000001
20
4.2405099999999871
30
0
0
SPLINE
5
1052
100
AcDbEntity
8
0
100
AcDbSpline
70
1064
71
3
72
20
73
16
74
0
42
0.000000001
43
0.0000000001
44
0.0000000001
40
0
40
0
40
0
40
0
40
0.20000000000000001
40
0.20000000000000001
40
0.20000000000000001
40
0.20000001000000001
40
0.40000000000000002
40
0.40000000000000002
40
0.40000000000000002
40
0.40000001000000018
40
0.59999999999999998
40
0.59999999999999998
40
0.59999999999999998
40
0.60000001000000025
40
1
40
1
40
1
40
1
10
-501.2826
20
-141.50619
30
0
10
-500.22420000000005
20
-141.50619
30
0
10
-499.69510000000008
20
-142.56449000000001
30
0
10
-499.69510000000008
20
-143.09369000000001
30
0
10
-499.69510000000008
20
-143.09369000000001
30
0
10
-499.69510000000008
20
-144.15198999999998
30
0
10
-500.75340000000011
20
-144.68118999999999
30
0
10
-501.2826
20
-144.68118999999999
30
0
10
-501.2826
20
-144.68118999999999
30
0
10
-502.34090000000003
20
-144.68118999999999
30
0
10
-502.87009999999987
20
-143.62289000000001
30
0
10
-502.87009999999987
20
-143.09369000000001
30
0
10
-502.87009999999987
20
-143.09369000000001
30
0
10
-502.87009999999987
20
-142.03539000000001
30
0
10
-501.81169999999986
20
-141.50619
30
0
10
-501.2826
20
-141.50619
30
0
0
SPLINE
5
1053
100
AcDbEntity
8
0
100
AcDbSpline
70
1064
71
3
72
20
73
16
74
0
42
0.000000001
43
0.0000000001
44
0.0000000001
40
0
40
0
40
0
40
0
40
0.20000000000000001
40
0.20000000000000001
40
0.20000000000000001
40
0.20000001000000001
40
0.40000000000000002
40
0.40000000000000002
40
0.40000000000000002
40
0.40000001000000018
40
0.59999999999999998
40
0.59999999999999998
40
0.59999999999999998
40
0.60000001000000025
40
1
40
1
40
1
40
1
10
-134.13269999999989
20
-2.2594899999999991
30
0
10
-134.13269999999989
20
-3.5927900000000079
30
0
10
-135.46600000000001
20
-4.2594900000000111
30
0
10
-136.13270000000003
20
-4.2594900000000111
30
0
10
-136.13270000000003
20
-4.2594900000000111
30
0
10
-137.46599999999989
20
-4.2594900000000111
30
0
10
-138.1327
20
-2.9261900000000018
30
0
10
-138.1327
20
-2.2594899999999991
30
0
10
-138.1327
20
-2.2594899999999991
30
0
10
-138.1327
20
-0.92619000000002694
30
0
10
-136.79929999999999
20
-0.25949000000000699
30
0
10
-136.13270000000003
20
-0.25949000000000699
30
0
10
-136.13270000000003
20
-0.25949000000000699
30
0
10
-134.7992999999999
20
-0.25949000000000699
30
0
10
-134.13269999999989
20
-1.592790000000033
30
0
10
-134.13269999999989
20
-2.2594899999999991
30
0
0
SPLINE
5
1054
100
AcDbEntity
8
0
100
AcDbSpline
70
1064
71
3
72
20
73
16
74
0
42
0.000000001
43
0.0000000001
44
0.0000000001
40
0
40
0
40
0
40
0
40
0.20000000000000001
40
0.20000000000000001
40
0.20000000000000001
40
0.20000001000000001
40
0.40000000000000002
40
0.40000000000000002
40
0.40000000000000002
40
0.40000001000000018
40
0.59999999999999998
40
0.59999999999999998
40
0.59999999999999998
40
0.60000001000000025
40
1
40
1
40
1
40
1
10
-537.47759999999994
20
-141.50619
30
0
10
-536.41919999999993
20
-141.50619
30
0
10
-535.89010000000007
20
-142.56449000000001
30
0
10
-535.89010000000007
20
-143.09369000000001
30
0
10
-535.89010000000007
20
-143.09369000000001
30
0
10
-535.89010000000007
20
-144.15198999999998
30
0
10
-536.94840000000011
20
-144.68118999999999
30
0
10
-537.47759999999994
20
-144.68118999999999
30
0
10
-537.47759999999994
20
-144.68118999999999
30
0
10
-538.53590000000008
20
-144.68118999999999
30
0
10
-539.06510000000003
20
-143.62289000000001
30
0
10
-539.06510000000003
20
-143.09369000000001
30
0
10
-539.06510000000003
20
-143.09369000000001
30
0
10
-539.06510000000003
20
-142.03539000000001
30
0
10
-538.00669999999991
20
-141.50619
30
0
10
-537.47759999999994
20
-141.50619
30
0
0
SPLINE
5
1055
100
AcDbEntity
8
0
100
AcDbSpline
70
1064
71
3
72
30
73
26
74
0
42
0.000000001
43
0.0000000001
44
0.0000000001
40
0
40
0
40
0
40
0
40
2.1479045878399999e-05
40
4.2948217859399997e-05
40
8.5856377051400003e-05
40
0.00017155327693239999
40
0.0002570938887114
40
0.00034248138909790001
40
0.00051280801808359995
40
0.00068255931540840004
40
0.00085175923366149998
40
0.0010204310772611001
40
0.0013562685102890999
40
0.0016902573553622001
40
0.0020225610477632001
40
0.0026826251802470002
40
0.0033376686116717001
40
0.0039886599736433
40
0.0052810407330674998
40
0.0065658689914648996
40
0.0078472468882193006
40
0.0091286155194230008
40
0.010413413860526801
40
0.013005431262688801
40
0.015679725330742598
40
0.015679725330742598
40
0.015679725330742598
40
0.015679725330742598
10
-343.44310000000002
20
41.340509999999988
30
0
10
-343.44291201780896
20
41.341200849588162
30
0
10
-343.44318330356998
20
41.34266891094299
30
0
10
-343.44304102113426
20
41.345512987707416
30
0
10
-343.4430920327909
20
41.350526462342252
30
0
10
-343.4429543882419
20
41.357657958587453
30
0
10
-343.4427869973934
20
41.366212269414852
30
0
10
-343.44244304916867
20
41.377581838603454
30
0
10
-343.44184176061151
20
41.39175223220753
30
0
10
-343.44083004939796
20
41.40869871930672
30
0
10
-343.43953571596433
20
41.425570781576262
30
0
10
-343.43743785771574
20
41.447930440140823
30
0
10
-343.43412092554308
20
41.475688658496423
30
0
10
-343.42903798120642
20
41.508710556581143
30
0
10
-343.42084340043635
20
41.5521634358781
30
0
10
-343.4079612743156
20
41.605590103304039
30
0
10
-343.38838196724311
20
41.668184963182313
30
0
10
-343.35712069029273
20
41.749015869614823
30
0
10
-343.30854946045451
20
41.845404799977388
30
0
10
-343.23623362557134
20
41.952181755189059
30
0
10
-343.15122846892399
20
42.048672132060496
30
0
10
-343.05471933088836
20
42.133677367575331
30
0
10
-342.9120370542455
20
42.23031970192924
30
0
10
-342.70871202378771
20
42.316825255309631
30
0
10
-342.53224313560179
20
42.340509999999973
30
0
10
-342.44309999999996
20
42.340509999999973
30
0
0
LINE
5
1056
100
AcDbEntity
8
0
100
AcDbLine
10
-343.44310000000002
20
17.940509999999993
30
0
11
-343.44310000000002
21
41.340509999999988
31
0
0
SPLINE
5
1057
100
AcDbEntity
8
0
100
AcDbSpline
70
1064
71
3
72
30
73
26
74
0
42
0.000000001
43
0.0000000001
44
0.0000000001
40
0
40
0
40
0
40
0
40
2.1474902556400001e-05
40
4.2940198904400002e-05
40
8.5840667415399997e-05
40
0.00017152242646329999
40
0.00025704821455520001
40
0.00034242120420780001
40
0.00051271973425869998
40
0.00068244413416979999
40
0.0008516183230509
40
0.0010202655719405
40
0.0013560570906315001
40
0.0016900041641023001
40
0.0020222699688968999
40
0.0026822690051994001
40
0.0033372599423943999
40
0.0039882096345998999
40
0.0052805335440448999
40
0.0065653318894011003
40
0.0078467005337821
40
0.0091280784533589003
40
0.0104129067455218
40
0.0130050733521524
40
0.015679720921447499
40
0.015679720921447499
40
0.015679720921447499
40
0.015679720921447499
10
-342.44309999999996
20
16.940509999999978
30
0
10
-342.44379071984531
20
16.940697932983213
30
0
10
-342.44525850190541
20
16.940426717134571
30
0
10
-342.44810206067308
20
16.94056896461182
30
0
10
-342.45311464162751
20
16.940517965769569
30
0
10
-342.46024488475172
20
16.940655579061318
30
0
10
-342.46879771295471
20
16.940822933271811
30
0
10
-342.48016536920255
20
16.941166806865407
30
0
10
-342.49433344899785
20
16.94176796683535
30
0
10
-342.51127725309675
20
16.942779462568829
30
0
10
-342.52814675437651
20
16.944073523706599
30
0
10
-342.55050323093229
20
16.946170952539489
30
0
10
-342.57825775740741
20
16.94948722160019
30
0
10
-342.61127557296118
20
16.954569160607399
30
0
10
-342.65472382917261
20
16.96276220702708
30
0
10
-342.70814570458361
20
16.975642034879922
30
0
10
-342.77073604123268
20
16.99521796463489
30
0
10
-342.85156339305945
20
17.02647443238973
30
0
10
-342.94795078156079
20
17.075039010600612
30
0
10
-343.05472948553722
20
17.147346444137948
30
0
10
-343.15122492386695
20
17.232344314390531
30
0
10
-343.236237442456
20
17.328848401645402
30
0
10
-343.33289215102434
20
17.471529968958432
30
0
10
-343.41941289052443
20
17.674868843119896
30
0
10
-343.44310000000002
20
17.851355081023492
30
0
10
-343.44310000000002
20
17.940509999999993
30
0
0
LINE
5
1058
100
AcDbEntity
8
0
100
AcDbLine
10
-341.44309999999996
20
16.940509999999978
30
0
11
-342.44309999999996
21
16.940509999999978
31
0
0
SPLINE
5
1059
100
AcDbEntity
8
0
100
AcDbSpline
70
1064
71
3
72
30
73
26
74
0
42
0.000000001
43
0.0000000001
44
0.0000000001
40
0
40
0
40
0
40
0
40
2.1478798543000001e-05
40
4.2947970602900001e-05
40
8.5856129370600007e-05
40
0.0001715530237887
40
0.0002570936192802
40
0.0003424810873404
40
0.00051280758466479997
40
0.00068255862696610001
40
0.0008517581300617
40
0.0010204293638352
40
0.0013562648750352999
40
0.0016902506611455
40
0.0020225499632604998
40
0.0026826007758879002
40
0.0033376241351659001
40
0.0039885884232461
40
0.0052808957888941001
40
0.0065656325812219994
40
0.0078469163966478003
40
0.0091282094859020998
40
0.0104129762215588
40
0.013005172716152501
40
0.015680155052991401
40
0.015680155052991401
40
0.015680155052991401
40
0.015680155052991401
10
-340.44309999999996
20
17.940509999999993
30
0
10
-340.44328792325712
20
17.939819142922534
30
0
10
-340.4430167212563
20
17.938351112505693
30
0
10
-340.44315895961108
20
17.935507033088356
30
0
10
-340.44310795824737
20
17.930493565328668
30
0
10
-340.44324554852517
20
17.923362065603961
30
0
10
-340.4434128636214
20
17.914807756170259
30
0
10
-340.44375666226102
20
17.903438188278798
30
0
10
-340.44435769007771
20
17.889267798338771
30
0
10
-340.44536896908852
20
17.87232131282925
30
0
10
-340.44666275659949
20
17.855449252157747
30
0
10
-340.44875974019072
20
17.833089610896018
30
0
10
-340.45207531274463
20
17.805331422028303
30
0
10
-340.45715623460461
20
17.772309533017243
30
0
10
-340.46534762979115
20
17.728856762166789
30
0
10
-340.47822493386462
20
17.67543025234971
30
0
10
-340.49779744017985
20
17.612835395743748
30
0
10
-340.52904848964096
20
17.532004862498237
30
0
10
-340.57760563043502
20
17.435616030984448
30
0
10
-340.6499051490394
20
17.328838369293138
30
0
10
-340.73489644250259
20
17.23234720133534
30
0
10
-340.83139625631622
20
17.147341274344342
30
0
10
-340.97407922750529
20
17.050695173240992
30
0
10
-341.17743530805228
20
16.964187438775468
30
0
10
-341.35393392210528
20
16.940509999999978
30
0
10
-341.44309999999996
20
16.940509999999978
30
0
0
LINE
5
1060
100
AcDbEntity
8
0
100
AcDbLine
10
-340.44309999999996
20
41.340509999999988
30
0
11
-340.44309999999996
21
17.940509999999993
31
0
0
SPLINE
5
1061
100
AcDbEntity
8
0
100
AcDbSpline
70
1064
71
3
72
30
73
26
74
0
42
0.000000001
43
0.0000000001
44
0.0000000001
40
0
40
0
40
0
40
0
40
2.14826945413e-05
40
4.2955742409499997e-05
40
8.5871592209500004e-05
40
0.00017158362816199998
40
0.0002571390480396
40
0.00034254102753030001
40
0.00051289562517969998
40
0.00068267356627420002
40
0.00085189880010930002
40
0.0010205946299475001
40
0.0013564760581522
40
0.0016905036184554001
40
0.0020228408106876001
40
0.0026829567242515001
40
0.0033380325821785999
40
0.0039890385442203002
40
0.0052814027683525996
40
0.0065661694843536997
40
0.0078474625671888006
40
0.0091287463890432005
40
0.0104134832010386
40
0.0130055305640858
40
0.0156801595017673
40
0.0156801595017673
40
0.0156801595017673
40
0.0156801595017673
10
-341.44309999999996
20
42.340509999999973
30
0
10
-341.44240902112972
20
42.340322029714621
30
0
10
-341.4409407199451
20
42.340593299556311
30
0
10
-341.43809613079486
20
42.34045102606899
30
0
10
-341.43308176925763
20
42.340502040860379
30
0
10
-341.42594901638051
20
42.3403644193452
30
0
10
-341.41739322423609
20
42.340197067997387
30
0
10
-341.40602174330195
20
42.33985319511109
30
0
10
-341.39184903941378
20
42.339252039224171
30
0
10
-341.37489987072945
20
42.338240545325903
30
0
10
-341.35802524888419
20
42.336946486105766
30
0
10
-341.33566242535721
20
42.334849073862451
30
0
10
-341.3079005442674
20
42.331532839124321
30
0
10
-341.27487457227983
20
42.326450913009552
30
0
10
-341.2314171777158
20
42.318257984835732
30
0
10
-341.17798587502421
20
42.305378384093082
30
0
10
-341.11538649403656
20
42.285802502205243
30
0
10
-341.03455240453138
20
42.254546645603661
30
0
10
-340.93816202881357
20
42.205982855252273
30
0
10
-340.83138611296647
20
42.133674936853531
30
0
10
-340.73490000359931
20
42.048676357631862
30
0
10
-340.64990135696803
20
41.952171492771342
30
0
10
-340.55326762663464
20
41.809487810318792
30
0
10
-340.46677507419963
20
41.60614556841572
30
0
10
-340.44309999999996
20
41.429664297922699
30
0
10
-340.44309999999996
20
41.340509999999988
30
0
0
LINE
5
1062
100
AcDbEntity
8
0
100
AcDbLine
10
-342.44309999999996
20
42.340509999999973
30
0
11
-341.44309999999996
21
42.340509999999973
31
0
0
SPLINE
5
1063
100
AcDbEntity
8
0
100
AcDbSpline
70
1064
71
3
72
20
73
16
74
0
42
0.000000001
43
0.0000000001
44
0.0000000001
40
0
40
0
40
0
40
0
40
0.20000000000000001
40
0.20000000000000001
40
0.20000000000000001
40
0.20000001000000001
40
0.40000000000000002
40
0.40000000000000002
40
0.40000000000000002
40
0.40000001000000018
40
0.59999999999999998
40
0.59999999999999998
40
0.59999999999999998
40
0.60000001000000025
40
1
40
1
40
1
40
1
10
-383.17930000000013
20
4.2405099999999871
30
0
10
-383.17930000000013
20
3.1821099999999798
30
0
10
-384.23759999999993
20
2.653010000000009
30
0
10
-384.76679999999999
20
2.653010000000009
30
0
10
-384.76679999999999
20
2.653010000000009
30
0
10
-385.82510000000002
20
2.653010000000009
30
0
10
-386.35429999999991
20
3.7113099999999832
30
0
10
-386.35429999999991
20
4.2405099999999871
30
0
10
-386.35429999999991
20
4.2405099999999871
30
0
10
-386.35429999999991
20
5.298809999999996
30
0
10
-385.29600000000005
20
5.828009999999999
30
0
10
-384.76679999999999
20
5.828009999999999
30
0
10
-384.76679999999999
20
5.828009999999999
30
0
10
-383.70849999999996
20
5.828009999999999
30
0
10
-383.17930000000013
20
4.7696099999999584
30
0
10
-383.17930000000013
20
4.2405099999999871
30
0
0
ELLIPSE
5
1064
100
AcDbEntity
8
0
100
AcDbEllipse
10
-520.96280000000002
20
37.666910000000009
30
0
11
0
21
6.2229999999999999
31
0.0
40
1
41
0
42
6.2831853071795862
0
SPLINE
5
1065
100
AcDbEntity
8
0
100
AcDbSpline
70
1064
71
3
72
20
73
16
74
0
42
0.000000001
43
0.0000000001
44
0.0000000001
40
0
40
0
40
0
40
0
40
0.20000000000000001
40
0.20000000000000001
40
0.20000000000000001
40
0.20000001000000001
40
0.40000000000000002
40
0.40000000000000002
40
0.40000000000000002
40
0.40000001000000018
40
0.59999999999999998
40
0.59999999999999998
40
0.59999999999999998
40
0.60000001000000025
40
1
40
1
40
1
40
1
10
-165.13270000000003
20
-33.259490000000028
30
0
10
-165.13270000000003
20
-34.592790000000029
30
0
10
-166.46600000000001
20
-35.25949
30
0
10
-167.13269999999991
20
-35.25949
30
0
10
-167.13269999999991
20
-35.25949
30
0
10
-168.46599999999992
20
-35.25949
30
0
10
-169.1327
20
-33.926190000000027
30
0
10
-169.1327
20
-33.259490000000028
30
0
10
-169.1327
20
-33.259490000000028
30
0
10
-169.1327
20
-31.926189999999998
30
0
10
-167.79930000000002
20
-31.259490000000028
30
0
10
-167.13269999999991
20
-31.259490000000028
30
0
10
-167.13269999999991
20
-31.259490000000028
30
0
10
-165.79929999999996
20
-31.259490000000028
30
0
10
-165.13270000000003
20
-32.592790000000008
30
0
10
-165.13270000000003
20
-33.259490000000028
30
0
0
SPLINE
5
1066
100
AcDbEntity
8
0
100
AcDbSpline
70
1064
71
3
72
20
73
16
74
0
42
0.000000001
43
0.0000000001
44
0.0000000001
40
0
40
0
40
0
40
0
40
0.20000000000000001
40
0.20000000000000001
40
0.20000000000000001
40
0.20000001000000001
40
0.40000000000000002
40
0.40000000000000002
40
0.40000000000000002
40
0.40000001000000018
40
0.59999999999999998
40
0.59999999999999998
40
0.59999999999999998
40
0.60000001000000025
40
1
40
1
40
1
40
1
10
-323.1859
20
40.435509999999972
30
0
10
-323.1859
20
39.377109999999959
30
0
10
-322.1275
20
38.848009999999988
30
0
10
-321.59840000000003
20
38.848009999999988
30
0
10
-321.59840000000003
20
38.848009999999988
30
0
10
-320.54000000000002
20
38.848009999999988
30
0
10
-320.01090000000011
20
39.906309999999962
30
0
10
-320.01090000000011
20
40.435509999999972
30
0
10
-320.01090000000011
20
40.435509999999972
30
0
10
-320.01090000000011
20
41.493809999999982
30
0
10
-321.06920000000002
20
42.023009999999985
30
0
10
-321.59840000000003
20
42.023009999999985
30
0
10
-321.59840000000003
20
42.023009999999985
30
0
10
-322.65669999999994
20
42.023009999999985
30
0
10
-323.1859
20
40.964609999999936
30
0
10
-323.1859
20
40.435509999999972
30
0
0
ELLIPSE
5
1067
100
AcDbEntity
8
0
100
AcDbEllipse
10
-151.63260000000002
20
-17.759490000000003
30
0
11
0
21
11.449999999999999
31
0.0
40
1
41
0
42
6.2831853071795862
0
SPLINE
5
1068
100
AcDbEntity
8
0
100
AcDbSpline
70
1064
71
3
72
30
73
26
74
0
42
0.000000001
43
0.0000000001
44
0.0000000001
40
0
40
0
40
0
40
0
40
2.1479045880700002e-05
40
4.2948217858899997e-05
40
8.5856377051400003e-05
40
0.0001715532769317
40
0.00025709388871099999
40
0.00034248138909899998
40
0.00051280801808469998
40
0.00068255931541039996
40
0.00085175923366290001
40
0.0010204310772607
40
0.0013562685102886001
40
0.0016902573553617
40
0.0020225610477649001
40
0.0026826251802472998
40
0.0033376686116725002
40
0.0039886599736432002
40
0.0052810407330677999
40
0.0065658689914647999
40
0.0078472468882192
40
0.0091286155194238994
40
0.0104134138605278
40
0.0130054312626884
40
0.0156797253307423
40
0.0156797253307423
40
0.0156797253307423
40
0.0156797253307423
10
-538.38260000000002
20
-124.24898999999999
30
0
10
-538.38329084958821
20
-124.24880201780891
30
0
10
-538.38475891094288
20
-124.2490733035696
30
0
10
-538.38760298770751
20
-124.24893102113471
30
0
10
-538.39261646234218
20
-124.24898203279051
30
0
10
-538.39974795858757
20
-124.2488443882422
30
0
10
-538.40830226941489
20
-124.2486769973933
30
0
10
-538.41967183860368
20
-124.24833304916859
30
0
10
-538.43384223220778
20
-124.2477317606114
30
0
10
-538.45078871930684
20
-124.24672004939802
30
0
10
-538.46766078157634
20
-124.2454257159642
30
0
10
-538.49002044014094
20
-124.24332785771561
30
0
10
-538.51777865849635
20
-124.24001092554309
30
0
10
-538.55080055658118
20
-124.23492798120651
30
0
10
-538.59425343587827
20
-124.2267334004363
30
0
10
-538.64768010330397
20
-124.2138512743156
30
0
10
-538.71027496318254
20
-124.19427196724288
30
0
10
-538.79110586961463
20
-124.16301069029268
30
0
10
-538.8874947999775
20
-124.11443946045439
30
0
10
-538.99427175518906
20
-124.04212362557152
30
0
10
-539.09076213206038
20
-123.95711846892399
30
0
10
-539.17576736757542
20
-123.86060933088839
30
0
10
-539.27240970192929
20
-123.71792705424528
30
0
10
-539.3589152553094
20
-123.51460202378759
30
0
10
-539.38260000000002
20
-123.33813313560182
30
0
10
-539.38260000000002
20
-123.24899000000001
30
0
0
LINE
5
1069
100
AcDbEntity
8
0
100
AcDbLine
10
-514.98259999999982
20
-124.24898999999999
30
0
11
-538.38260000000002
21
-124.24898999999999
31
0
0
SPLINE
5
1070
100
AcDbEntity
8
0
100
AcDbSpline
70
1064
71
3
72
30
73
26
74
0
42
0.000000001
43
0.0000000001
44
0.0000000001
40
0
40
0
40
0
40
0
40
2.1474902556099999e-05
40
4.2940198904799998e-05
40
8.5840667415200002e-05
40
0.00017152242646300002
40
0.00025704821455479999
40
0.00034242120420810001
40
0.00051271973425850005
40
0.00068244413416940002
40
0.0008516183230503
40
0.0010202655719406999
40
0.0013560570906309001
40
0.0016900041641020004
40
0.0020222699688967
40
0.0026822690051992002
40
0.0033372599423935
40
0.0039882096345991002
40
0.0052805335440445998
40
0.0065653318893995
40
0.0078467005337819005
40
0.0091280784533578994
40
0.010412906745521399
40
0.013005073352150899
40
0.0156797209214453
40
0.0156797209214453
40
0.0156797209214453
40
0.0156797209214453
10
-513.98260000000005
20
-123.24899000000001
30
0
10
-513.98278793298334
20
-123.24968071984529
30
0
10
-513.98251671713456
20
-123.25114850190552
30
0
10
-513.98265896461214
20
-123.253992060673
30
0
10
-513.98260796576915
20
-123.2590046416275
30
0
10
-513.98274557906166
20
-123.26613488475161
30
0
10
-513.98291293327156
20
-123.2746877129546
30
0
10
-513.98325680686571
20
-123.2860553692025
30
0
10
-513.98385796683533
20
-123.30022344899777
30
0
10
-513.98486946256889
20
-123.3171672530967
30
0
10
-513.98616352370652
20
-123.33403675437651
30
0
10
-513.98826095253969
20
-123.35639323093221
30
0
10
-513.99157722159998
20
-123.38414775740731
30
0
10
-513.99665916060769
20
-123.41716557296118
30
0
10
-514.00485220702683
20
-123.46061382917259
30
0
10
-514.01773203488005
20
-123.51403570458351
30
0
10
-514.03730796463503
20
-123.5766260412326
30
0
10
-514.06856443238973
20
-123.6574533930592
30
0
10
-514.11712901060059
20
-123.75384078156081
30
0
10
-514.18943644413787
20
-123.86061948553719
30
0
10
-514.27443431439065
20
-123.9571149238668
30
0
10
-514.37093840164528
20
-124.04212744245581
30
0
10
-514.51361996895844
20
-124.1387821510244
30
0
10
-514.71695884311987
20
-124.2253028905243
30
0
10
-514.8934450810234
20
-124.24898999999999
30
0
10
-514.98259999999982
20
-124.24898999999999
30
0
0
LINE
5
1071
100
AcDbEntity
8
0
100
AcDbLine
10
-513.98260000000005
20
-122.24899000000001
30
0
11
-513.98260000000005
21
-123.24899000000001
31
0
0
SPLINE
5
1072
100
AcDbEntity
8
0
100
AcDbSpline
70
1064
71
3
72
30
73
26
74
0
42
0.000000001
43
0.0000000001
44
0.0000000001
40
0
40
0
40
0
40
0
40
2.1478798542500001e-05
40
4.2947970603100002e-05
40
8.5856129370800001e-05
40
0.0001715530237876
40
0.00025709361927970002
40
0.0003424810873392
40
0.0005128075846659
40
0.00068255862696570005
40
0.00085175813006100015
40
0.0010204293638357001
40
0.0013562648750344
40
0.0016902506611456999
40
0.0020225499632594
40
0.0026826007758876001
40
0.0033376241351659001
40
0.0039885884232447998
40
0.0052808957888931
40
0.0065656325812200001
40
0.0078469163966469989
40
0.0091282094859002991
40
0.0104129762215576
40
0.013005172716151
40
0.015680155052989999
40
0.015680155052989999
40
0.015680155052989999
40
0.015680155052989999
10
-514.98259999999982
20
-121.24899000000001
30
0
10
-514.98190914292252
20
-121.24917792325721
30
0
10
-514.98044111250567
20
-121.24890672125609
30
0
10
-514.97759703308805
20
-121.2490489596114
30
0
10
-514.97258356532882
20
-121.248997958247
30
0
10
-514.96545206560393
20
-121.24913554852527
30
0
10
-514.95689775617029
20
-121.24930286362141
30
0
10
-514.94552818827879
20
-121.24964666226111
30
0
10
-514.93135779833869
20
-121.25024769007769
30
0
10
-514.91441131282909
20
-121.25125896908861
30
0
10
-514.89753925215791
20
-121.25255275659961
30
0
10
-514.87517961089577
20
-121.25464974019069
30
0
10
-514.84742142202822
20
-121.25796531274482
30
0
10
-514.81439953301719
20
-121.26304623460462
30
0
10
-514.77094676216689
20
-121.27123762979119
30
0
10
-514.71752025234957
20
-121.28411493386471
30
0
10
-514.65492539574382
20
-121.3036874401798
30
0
10
-514.5740948624981
20
-121.33493848964109
30
0
10
-514.47770603098468
20
-121.38349563043499
30
0
10
-514.37092836929298
20
-121.45579514903929
30
0
10
-514.27443720133545
20
-121.54078644250269
30
0
10
-514.18943127434432
20
-121.63728625631619
30
0
10
-514.09278517324105
20
-121.7799692275053
30
0
10
-514.00627743877533
20
-121.9833253080523
30
0
10
-513.98260000000005
20
-122.15982392210537
30
0
10
-513.98260000000005
20
-122.24899000000001
30
0
0
LINE
5
1073
100
AcDbEntity
8
0
100
AcDbLine
10
-538.38260000000002
20
-121.24899000000001
30
0
11
-514.98259999999982
21
-121.24899000000001
31
0
0
SPLINE
5
1074
100
AcDbEntity
8
0
100
AcDbSpline
70
1064
71
3
72
30
73
26
74
0
42
0.000000001
43
0.0000000001
44
0.0000000001
40
0
40
0
40
0
40
0
40
2.14826945413e-05
40
4.29557424094e-05
40
8.5871592209500004e-05
40
0.00017158362816159999
40
0.00025713904803970002
40
0.00034254102753079999
40
0.00051289562517950005
40
0.00068267356627420002
40
0.00085189880010980005
40
0.0010205946299480001
40
0.0013564760581514001
40
0.0016905036184559001
40
0.0020228408106873
40
0.0026829567242517001
40
0.0033380325821787999
40
0.0039890385442201996
40
0.0052814027683533004
40
0.0065661694843542999
40
0.0078474625671896003
40
0.0091287463890438007
40
0.010413483201038101
40
0.0130055305640864
40
0.015680159501767699
40
0.015680159501767699
40
0.015680159501767699
40
0.015680159501767699
10
-539.38260000000002
20
-122.24899000000001
30
0
10
-539.3824120297146
20
-122.2482990211296
30
0
10
-539.38268329955645
20
-122.24683071994511
30
0
10
-539.38254102606902
20
-122.24398613079489
30
0
10
-539.38259204086046
20
-122.2389717692573
30
0
10
-539.38245441934532
20
-122.23183901638069
30
0
10
-539.38228706799748
20
-122.22328322423608
30
0
10
-539.38194319511103
20
-122.211911743302
30
0
10
-539.38134203922402
20
-122.1977390394138
30
0
10
-539.38033054532571
20
-122.1807898707296
30
0
10
-539.37903648610632
20
-122.16391524888409
30
0
10
-539.37693907386222
20
-122.14155242535719
30
0
10
-539.37362283912444
20
-122.1137905442674
30
0
10
-539.36854091300927
20
-122.08076457228
30
0
10
-539.36034798483615
20
-122.0373071777157
30
0
10
-539.34746838409285
20
-121.9838758750243
30
0
10
-539.32789250220549
20
-121.9212764940366
30
0
10
-539.29663664560371
20
-121.8404424045314
30
0
10
-539.24807285525219
20
-121.74405202881351
30
0
10
-539.17576493685351
20
-121.63727611296652
30
0
10
-539.09076635763176
20
-121.54079000359941
30
0
10
-538.99426149277133
20
-121.45579135696769
30
0
10
-538.85157781031887
20
-121.3591576266346
30
0
10
-538.64823556841566
20
-121.2726650741994
30
0
10
-538.47175429792276
20
-121.24899000000001
30
0
10
-538.38260000000002
20
-121.24899000000001
30
0
0
LINE
5
1075
100
AcDbEntity
8
0
100
AcDbLine
10
-539.38260000000002
20
-123.24899000000001
30
0
11
-539.38260000000002
21
-122.24899000000001
31
0
0
SPLINE
5
1076
100
AcDbEntity
8
0
100
AcDbSpline
70
1064
71
3
72
20
73
16
74
0
42
0.000000001
43
0.0000000001
44
0.0000000001
40
0
40
0
40
0
40
0
40
0.20000000000000001
40
0.20000000000000001
40
0.20000000000000001
40
0.20000001000000001
40
0.40000000000000002
40
0.40000000000000002
40
0.40000000000000002
40
0.40000001000000018
40
0.59999999999999998
40
0.59999999999999998
40
0.59999999999999998
40
0.60000001000000025
40
1
40
1
40
1
40
1
10
-383.17930000000013
20
-31.954490000000032
30
0
10
-383.17930000000013
20
-33.01289000000002
30
0
10
-384.23759999999993
20
-33.541990000000013
30
0
10
-384.76679999999999
20
-33.541990000000013
30
0
10
-384.76679999999999
20
-33.541990000000013
30
0
10
-385.82510000000002
20
-33.541990000000013
30
0
10
-386.35429999999991
20
-32.483690000000017
30
0
10
-386.35429999999991
20
-31.954490000000032
30
0
10
-386.35429999999991
20
-31.954490000000032
30
0
10
-386.35429999999991
20
-30.896189999999997
30
0
10
-385.29600000000005
20
-30.366990000000019
30
0
10
-384.76679999999999
20
-30.366990000000019
30
0
10
-384.76679999999999
20
-30.366990000000019
30
0
10
-383.70849999999996
20
-30.366990000000019
30
0
10
-383.17930000000013
20
-31.425390000000021
30
0
10
-383.17930000000013
20
-31.954490000000032
30
0
0
SPLINE
5
1077
100
AcDbEntity
8
0
100
AcDbSpline
70
1064
71
3
72
20
73
16
74
0
42
0.000000001
43
0.0000000001
44
0.0000000001
40
0
40
0
40
0
40
0
40
0.20000000000000001
40
0.20000000000000001
40
0.20000000000000001
40
0.20000001000000001
40
0.40000000000000002
40
0.40000000000000002
40
0.40000000000000002
40
0.40000001000000018
40
0.59999999999999998
40
0.59999999999999998
40
0.59999999999999998
40
0.60000001000000025
40
1
40
1
40
1
40
1
10
-501.2826
20
-113.09699000000001
30
0
10
-500.22420000000005
20
-113.09699000000001
30
0
10
-499.69510000000008
20
-112.03869
30
0
10
-499.69510000000008
20
-111.50949
30
0
10
-499.69510000000008
20
-111.50949
30
0
10
-499.69510000000008
20
-110.45119
30
0
10
-500.75340000000011
20
-109.92199000000001
30
0
10
-501.2826
20
-109.92199000000001
30
0
10
-501.2826
20
-109.92199000000001
30
0
10
-502.34090000000003
20
-109.92199000000001
30
0
10
-502.87009999999987
20
-110.98028999999998
30
0
10
-502.87009999999987
20
-111.50949
30
0
10
-502.87009999999987
20
-111.50949
30
0
10
-502.87009999999987
20
-112.56779
30
0
10
-501.81169999999986
20
-113.09699000000001
30
0
10
-501.2826
20
-113.09699000000001
30
0
0
SPLINE
5
1078
100
AcDbEntity
8
0
100
AcDbSpline
70
1064
71
3
72
20
73
16
74
0
42
0.000000001
43
0.0000000001
44
0.0000000001
40
0
40
0
40
0
40
0
40
0.20000000000000001
40
0.20000000000000001
40
0.20000000000000001
40
0.20000001000000001
40
0.40000000000000002
40
0.40000000000000002
40
0.40000000000000002
40
0.40000001000000018
40
0.59999999999999998
40
0.59999999999999998
40
0.59999999999999998
40
0.60000001000000025
40
1
40
1
40
1
40
1
10
-537.47759999999994
20
-81.512790000000024
30
0
10
-536.41919999999993
20
-81.512790000000024
30
0
10
-535.89010000000007
20
-80.454390000000018
30
0
10
-535.89010000000007
20
-79.925290000000018
30
0
10
-535.89010000000007
20
-79.925290000000018
30
0
10
-535.89010000000007
20
-78.866890000000026
30
0
10
-536.94840000000011
20
-78.337790000000012
30
0
10
-537.47759999999994
20
-78.337790000000012
30
0
10
-537.47759999999994
20
-78.337790000000012
30
0
10
-538.53590000000008
20
-78.337790000000012
30
0
10
-539.06510000000003
20
-79.396090000000015
30
0
10
-539.06510000000003
20
-79.925290000000018
30
0
10
-539.06510000000003
20
-79.925290000000018
30
0
10
-539.06510000000003
20
-80.983590000000021
30
0
10
-538.00669999999991
20
-81.512790000000024
30
0
10
-537.47759999999994
20
-81.512790000000024
30
0
0
SPLINE
5
1079
100
AcDbEntity
8
0
100
AcDbSpline
70
1064
71
3
72
20
73
16
74
0
42
0.000000001
43
0.0000000001
44
0.0000000001
40
0
40
0
40
0
40
0
40
0.20000000000000001
40
0.20000000000000001
40
0.20000000000000001
40
0.20000001000000001
40
0.40000000000000002
40
0.40000000000000002
40
0.40000000000000002
40
0.40000001000000018
40
0.59999999999999998
40
0.59999999999999998
40
0.59999999999999998
40
0.60000001000000025
40
1
40
1
40
1
40
1
10
-501.2826
20
-81.512790000000024
30
0
10
-500.22420000000005
20
-81.512790000000024
30
0
10
-499.69510000000008
20
-80.454390000000018
30
0
10
-499.69510000000008
20
-79.925290000000018
30
0
10
-499.69510000000008
20
-79.925290000000018
30
0
10
-499.69510000000008
20
-78.866890000000026
30
0
10
-500.75340000000011
20
-78.337790000000012
30
0
10
-501.2826
20
-78.337790000000012
30
0
10
-501.2826
20
-78.337790000000012
30
0
10
-502.34090000000003
20
-78.337790000000012
30
0
10
-502.87009999999987
20
-79.396090000000015
30
0
10
-502.87009999999987
20
-79.925290000000018
30
0
10
-502.87009999999987
20
-79.925290000000018
30
0
10
-502.87009999999987
20
-80.983590000000021
30
0
10
-501.81169999999986
20
-81.512790000000024
30
0
10
-501.2826
20
-81.512790000000024
30
0
0
SPLINE
5
1080
100
AcDbEntity
8
0
100
AcDbSpline
70
1064
71
3
72
20
73
16
74
0
42
0.000000001
43
0.0000000001
44
0.0000000001
40
0
40
0
40
0
40
0
40
0.20000000000000001
40
0.20000000000000001
40
0.20000000000000001
40
0.20000001000000001
40
0.40000000000000002
40
0.40000000000000002
40
0.40000000000000002
40
0.40000001000000018
40
0.59999999999999998
40
0.59999999999999998
40
0.59999999999999998
40
0.60000001000000025
40
1
40
1
40
1
40
1
10
-438.15679999999998
20
8.4950100000000006
30
0
10
-440.50649999999996
20
8.4950100000000006
30
0
10
-442.41129999999998
20
6.590209999999975
30
0
10
-442.41129999999998
20
4.2405099999999871
30
0
10
-442.41129999999998
20
4.2405099999999871
30
0
10
-442.41129999999998
20
1.8908099999999981
30
0
10
-440.50649999999996
20
-0.013989999999992999
30
0
10
-438.15679999999998
20
-0.013989999999992999
30
0
10
-438.15679999999998
20
-0.013989999999992999
30
0
10
-435.80709999999999
20
-0.013989999999992999
30
0
10
-433.90229999999997
20
1.8908099999999981
30
0
10
-433.90229999999997
20
4.2405099999999871
30
0
10
-433.90229999999997
20
4.2405099999999871
30
0
10
-433.90229999999997
20
6.590209999999975
30
0
10
-435.80709999999999
20
8.4950100000000006
30
0
10
-438.15679999999998
20
8.4950100000000006
30
0
0
SPLINE
5
1081
100
AcDbEntity
8
0
100
AcDbSpline
70
1064
71
3
72
20
73
16
74
0
42
0.000000001
43
0.0000000001
44
0.0000000001
40
0
40
0
40
0
40
0
40
0.20000000000000001
40
0.20000000000000001
40
0.20000000000000001
40
0.20000001000000001
40
0.40000000000000002
40
0.40000000000000002
40
0.40000000000000002
40
0.40000001000000018
40
0.59999999999999998
40
0.59999999999999998
40
0.59999999999999998
40
0.60000001000000025
40
1
40
1
40
1
40
1
10
-530.20839999999998
20
8.4950100000000006
30
0
10
-532.55809999999997
20
8.4950100000000006
30
0
10
-534.4629000000001
20
6.590209999999975
30
0
10
-534.4629000000001
20
4.2405099999999871
30
0
10
-534.4629000000001
20
4.2405099999999871
30
0
10
-534.4629000000001
20
1.8908099999999981
30
0
10
-532.55809999999997
20
-0.013989999999992999
30
0
10
-530.20839999999998
20
-0.013989999999992999
30
0
10
-530.20839999999998
20
-0.013989999999992999
30
0
10
-527.85869999999989
20
-0.013989999999992999
30
0
10
-525.95390000000009
20
1.8908099999999981
30
0
10
-525.95390000000009
20
4.2405099999999871
30
0
10
-525.95390000000009
20
4.2405099999999871
30
0
10
-525.95390000000009
20
6.590209999999975
30
0
10
-527.85869999999989
20
8.4950100000000006
30
0
10
-530.20839999999998
20
8.4950100000000006
30
0
0
SPLINE
5
1082
100
AcDbEntity
8
0
100
AcDbSpline
70
1064
71
3
72
20
73
16
74
0
42
0.000000001
43
0.0000000001
44
0.0000000001
40
0
40
0
40
0
40
0
40
0.20000000000000001
40
0.20000000000000001
40
0.20000000000000001
40
0.20000001000000001
40
0.40000000000000002
40
0.40000000000000002
40
0.40000000000000002
40
0.40000001000000018
40
0.59999999999999998
40
0.59999999999999998
40
0.59999999999999998
40
0.60000001000000025
40
1
40
1
40
1
40
1
10
-432.04380000000009
20
-3.5123900000000319
30
0
10
-433.2011
20
-3.5123900000000319
30
0
10
-434.13929999999999
20
-4.4505900000000063
30
0
10
-434.13929999999999
20
-5.6078900000000163
30
0
10
-434.13929999999999
20
-5.6078900000000163
30
0
10
-434.13929999999999
20
-6.7651900000000262
30
0
10
-433.2011
20
-7.7033900000000166
30
0
10
-432.04380000000009
20
-7.7033900000000166
30
0
10
-432.04380000000009
20
-7.7033900000000166
30
0
10
-430.88649999999984
20
-7.7033900000000166
30
0
10
-429.94830000000002
20
-6.7651900000000262
30
0
10
-429.94830000000002
20
-5.6078900000000163
30
0
10
-429.94830000000002
20
-5.6078900000000163
30
0
10
-429.94830000000002
20
-4.4505900000000063
30
0
10
-430.88649999999984
20
-3.5123900000000319
30
0
10
-432.04380000000009
20
-3.5123900000000319
30
0
0
SPLINE
5
1083
100
AcDbEntity
8
0
100
AcDbSpline
70
1064
71
3
72
20
73
16
74
0
42
0.000000001
43
0.0000000001
44
0.0000000001
40
0
40
0
40
0
40
0
40
0.20000000000000001
40
0.20000000000000001
40
0.20000000000000001
40
0.20000001000000001
40
0.40000000000000002
40
0.40000000000000002
40
0.40000000000000002
40
0.40000001000000018
40
0.59999999999999998
40
0.59999999999999998
40
0.59999999999999998
40
0.60000001000000025
40
1
40
1
40
1
40
1
10
-432.04380000000009
20
16.184409999999968
30
0
10
-433.2011
20
16.184409999999968
30
0
10
-434.13929999999999
20
15.246309999999992
30
0
10
-434.13929999999999
20
14.088909999999979
30
0
10
-434.13929999999999
20
14.088909999999979
30
0
10
-434.13929999999999
20
12.931609999999958
30
0
10
-433.2011
20
11.993410000000001
30
0
10
-432.04380000000009
20
11.993410000000001
30
0
10
-432.04380000000009
20
11.993410000000001
30
0
10
-430.88649999999984
20
11.993410000000001
30
0
10
-429.94830000000002
20
12.931609999999958
30
0
10
-429.94830000000002
20
14.088909999999979
30
0
10
-429.94830000000002
20
14.088909999999979
30
0
10
-429.94830000000002
20
15.246209999999959
30
0
10
-430.88649999999984
20
16.184409999999968
30
0
10
-432.04380000000009
20
16.184409999999968
30
0
0
SPLINE
5
1084
100
AcDbEntity
8
0
100
AcDbSpline
70
1064
71
3
72
20
73
16
74
0
42
0.000000001
43
0.0000000001
44
0.0000000001
40
0
40
0
40
0
40
0
40
0.20000000000000001
40
0.20000000000000001
40
0.20000000000000001
40
0.20000001000000001
40
0.40000000000000002
40
0.40000000000000002
40
0.40000000000000002
40
0.40000001000000018
40
0.59999999999999998
40
0.59999999999999998
40
0.59999999999999998
40
0.60000001000000025
40
1
40
1
40
1
40
1
10
-449.46840000000003
20
6.3360099999999875
30
0
10
-450.62569999999994
20
6.3360099999999875
30
0
10
-451.56389999999988
20
5.3978099999999971
30
0
10
-451.56389999999988
20
4.2405099999999871
30
0
10
-451.56389999999988
20
4.2405099999999871
30
0
10
-451.56389999999988
20
3.083209999999958
30
0
10
-450.62569999999994
20
2.1450100000000032
30
0
10
-449.46840000000003
20
2.1450100000000032
30
0
10
-449.46840000000003
20
2.1450100000000032
30
0
10
-448.3110999999999
20
2.1450100000000032
30
0
10
-447.37290000000002
20
3.083209999999958
30
0
10
-447.37290000000002
20
4.2405099999999871
30
0
10
-447.37290000000002
20
4.2405099999999871
30
0
10
-447.37290000000002
20
5.3978099999999971
30
0
10
-448.3110999999999
20
6.3360099999999875
30
0
10
-449.46840000000003
20
6.3360099999999875
30
0
0
SPLINE
5
1085
100
AcDbEntity
8
0
100
AcDbSpline
70
1064
71
3
72
30
73
26
74
0
42
0.000000001
43
0.0000000001
44
0.0000000001
40
0
40
0
40
0
40
0
40
2.1479045878200001e-05
40
4.2948217859399997e-05
40
8.5856377051599997e-05
40
0.00017155327693209999
40
0.00025709388871120002
40
0.00034248138909790001
40
0.00051280801808379999
40
0.00068255931540829996
40
0.00085175923366110002
40
0.0010204310772611001
40
0.0013562685102893001
40
0.0016902573553622001
40
0.0020225610477632001
40
0.0026826251802474
40
0.0033376686116719
40
0.0039886599736433
40
0.0052810407330678997
40
0.0065658689914644
40
0.0078472468882192
40
0.0091286155194227996
40
0.0104134138605272
40
0.0130054312626884
40
0.015679725330742598
40
0.015679725330742598
40
0.015679725330742598
40
0.015679725330742598
10
-365.92209999999994
20
-9.5913900000000201
30
0
10
-365.92191201780901
20
-9.5906991504118722
30
0
10
-365.9221833035698
20
-9.5892310890570798
30
0
10
-365.9220410211347
20
-9.5863870122925476
30
0
10
-365.92209203279037
20
-9.581373537657905
30
0
10
-365.92195438824228
20
-9.5742420414125462
30
0
10
-365.92178699739327
20
-9.5656877305851395
30
0
10
-365.92144304916872
20
-9.55431816139658
30
0
10
-365.92084176061144
20
-9.5401477677924795
30
0
10
-365.91983004939829
20
-9.5232012806933142
30
0
10
-365.91853571596397
20
-9.506329218423808
30
0
10
-365.91643785771595
20
-9.48396955985924
30
0
10
-365.91312092554318
20
-9.4562113415035398
30
0
10
-365.90803798120646
20
-9.4231894434189218
30
0
10
-365.89984340043651
20
-9.3797365641218651
30
0
10
-365.88696127431558
20
-9.3263098966960101
30
0
10
-365.86738196724309
20
-9.2637150368177323
30
0
10
-365.83612069029289
20
-9.182884130385176
30
0
10
-365.78754946045427
20
-9.0864952000227088
30
0
10
-365.71523362557161
20
-8.9797182448108952
30
0
10
-365.63022846892403
20
-8.8832278679394587
30
0
10
-365.5337193308884
20
-8.798222632424773
30
0
10
-365.39103705424543
20
-8.7015802980707928
30
0
10
-365.18771202378758
20
-8.6150747446903964
30
0
10
-365.01124313560183
20
-8.5913900000000432
30
0
10
-364.9221
20
-8.5913900000000432
30
0
0
LINE
5
1086
100
AcDbEntity
8
0
100
AcDbLine
10
-365.92209999999994
20
-32.991390000000017
30
0
11
-365.92209999999994
21
-9.5913900000000201
31
0
0
SPLINE
5
1087
100
AcDbEntity
8
0
100
AcDbSpline
70
1064
71
3
72
30
73
26
74
0
42
0.000000001
43
0.0000000001
44
0.0000000001
40
0
40
0
40
0
40
0
40
2.14749025568e-05
40
4.2940198904799998e-05
40
8.5840667415000007e-05
40
0.00017152242646329999
40
0.00025704821455520001
40
0.00034242120420780001
40
0.00051271973425869998
40
0.00068244413416979999
40
0.0008516183230509
40
0.0010202655719409
40
0.0013560570906315001
40
0.0016900041641018
40
0.0020222699688965001
40
0.0026822690051994001
40
0.0033372599423938999
40
0.0039882096345994003
40
0.0052805335440454003
40
0.0065653318894007004
40
0.0078467005337825007
40
0.0091280784533590998
40
0.0104129067455215
40
0.0130050733521522
40
0.015679720921447302
40
0.015679720921447302
40
0.015679720921447302
40
0.015679720921447302
10
-364.9221
20
-33.99139000000001
30
0
10
-364.92279071984524
20
-33.991202067016772
30
0
10
-364.92425850190563
20
-33.991473282865329
30
0
10
-364.92710206067295
20
-33.991331035388306
30
0
10
-364.93211464162761
20
-33.991382034230313
30
0
10
-364.9392448847517
20
-33.991244420938713
30
0
10
-364.94779771295464
20
-33.991077066728238
30
0
10
-364.95916536920242
20
-33.990733193134616
30
0
10
-364.97333344899789
20
-33.990132033164706
30
0
10
-364.99027725309679
20
-33.989120537431099
30
0
10
-365.00714675437655
20
-33.987826476293392
30
0
10
-365.02950323093216
20
-33.985729047460481
30
0
10
-365.05725775740729
20
-33.98241277839989
30
0
10
-365.09027557296122
20
-33.977330839392565
30
0
10
-365.13372382917254
20
-33.969137792972937
30
0
10
-365.18714570458371
20
-33.956257965120095
30
0
10
-365.24973604123272
20
-33.93668203536506
30
0
10
-365.33056339305926
20
-33.905425567610301
30
0
10
-365.42695078156095
20
-33.856860989399379
30
0
10
-365.53372948553721
20
-33.784553555861947
30
0
10
-365.63022492386688
20
-33.699555685609525
30
0
10
-365.71523744245599
20
-33.603051598354618
30
0
10
-365.81189215102427
20
-33.460370031041521
30
0
10
-365.8984128905243
20
-33.257031156880117
30
0
10
-365.92209999999994
20
-33.080544918976514
30
0
10
-365.92209999999994
20
-32.991390000000017
30
0
0
LINE
5
1088
100
AcDbEntity
8
0
100
AcDbLine
10
-363.9221
20
-33.99139000000001
30
0
11
-364.9221
21
-33.99139000000001
31
0
0
SPLINE
5
1089
100
AcDbEntity
8
0
100
AcDbSpline
70
1064
71
3
72
30
73
26
74
0
42
0.000000001
43
0.0000000001
44
0.0000000001
40
0
40
0
40
0
40
0
40
2.1478798543199999e-05
40
4.2947970602900001e-05
40
8.5856129370299994e-05
40
0.00017155302378849999
40
0.0002570936192799
40
0.00034248108734029998
40
0.00051280758466449997
40
0.00068255862696649998
40
0.00085175813006190004
40
0.0010204293638348
40
0.0013562648750350002
40
0.0016902506611451
40
0.0020225499632606
40
0.0026826007758883001
40
0.0033376241351658
40
0.0039885884232457999
40
0.0052808957888938
40
0.0065656325812214998
40
0.0078469163966478003
40
0.0091282094859020009
40
0.0104129762215582
40
0.0130051727161521
40
0.015680155052991099
40
0.015680155052991099
40
0.015680155052991099
40
0.015680155052991099
10
-362.9221
20
-32.991390000000017
30
0
10
-362.92228792325722
20
-32.992080857077497
30
0
10
-362.92201672125611
20
-32.993548887494285
30
0
10
-362.92215895961141
20
-32.996392966911614
30
0
10
-362.9221079582473
20
-33.001406434671303
30
0
10
-362.92224554852544
20
-33.008537934395996
30
0
10
-362.92241286362133
20
-33.017092243829751
30
0
10
-362.92275666226118
20
-33.028461811721137
30
0
10
-362.92335769007769
20
-33.042632201661256
30
0
10
-362.92436896908862
20
-33.059578687170784
30
0
10
-362.92566275659965
20
-33.076450747842216
30
0
10
-362.92775974019082
20
-33.098810389103996
30
0
10
-362.93107531274467
20
-33.126568577971611
30
0
10
-362.9361562346046
20
-33.159590466982721
30
0
10
-362.94434762979142
20
-33.203043237833143
30
0
10
-362.95722493386472
20
-33.256469747650321
30
0
10
-362.97679744017989
20
-33.319064604256234
30
0
10
-363.008048489641
20
-33.399895137501787
30
0
10
-363.05660563043494
20
-33.496283969015565
30
0
10
-363.12890514903933
20
-33.603061630706883
30
0
10
-363.21389644250257
20
-33.699552798664591
30
0
10
-363.31039625631598
20
-33.784558725655664
30
0
10
-363.45307922750544
20
-33.881204826758982
30
0
10
-363.65643530805221
20
-33.967712561224516
30
0
10
-363.83293392210538
20
-33.99139000000001
30
0
10
-363.9221
20
-33.99139000000001
30
0
0
LINE
5
1090
100
AcDbEntity
8
0
100
AcDbLine
10
-362.9221
20
-9.5913900000000201
30
0
11
-362.9221
21
-32.991390000000017
31
0
0
SPLINE
5
1091
100
AcDbEntity
8
0
100
AcDbSpline
70
1064
71
3
72
30
73
26
74
0
42
0.000000001
43
0.0000000001
44
0.0000000001
40
0
40
0
40
0
40
0
40
2.14826945413e-05
40
4.29557424099e-05
40
8.5871592209500004e-05
40
0.0001715836281615
40
0.0002571390480405
40
0.00034254102753030001
40
0.00051289562517969998
40
0.00068267356627459998
40
0.00085189880010939998
40
0.0010205946299478999
40
0.0013564760581516999
40
0.0016905036184557999
40
0.0020228408106867002
40
0.0026829567242507
40
0.0033380325821785999
40
0.0039890385442199004
40
0.0052814027683521
40
0.0065661694843535999
40
0.0078474625671885994
40
0.0091287463890434
40
0.010413483201038
40
0.0130055305640858
40
0.015680159501766999
40
0.015680159501766999
40
0.015680159501766999
40
0.015680159501766999
10
-363.9221
20
-8.5913900000000432
30
0
10
-363.92140902112965
20
-8.5915779702854049
30
0
10
-363.91994071994509
20
-8.5913067004436883
30
0
10
-363.91709613079513
20
-8.5914489739309374
30
0
10
-363.9120817692571
20
-8.5913979591398792
30
0
10
-363.90494901638078
20
-8.5915355806546145
30
0
10
-363.89639322423614
20
-8.591702932002681
30
0
10
-363.88502174330199
20
-8.592046804888918
30
0
10
-363.87084903941394
20
-8.5926479607758548
30
0
10
-363.85389987072955
20
-8.5936594546740963
30
0
10
-363.83702524888406
20
-8.5949535138943745
30
0
10
-363.81466242535726
20
-8.5970509261374932
30
0
10
-363.78690054426727
20
-8.600367160875777
30
0
10
-363.75387457227998
20
-8.6054490869904043
30
0
10
-363.7104171777159
20
-8.6136420151642845
30
0
10
-363.65698587502425
20
-8.6265216159069524
30
0
10
-363.59438649403671
20
-8.6460974977947735
30
0
10
-363.51355240453159
20
-8.6773533543963648
30
0
10
-363.41716202881355
20
-8.725917144747779
30
0
10
-363.31038611296651
20
-8.7982250631464591
30
0
10
-363.21390000359935
20
-8.8832236423682254
30
0
10
-363.1289013569679
20
-8.979728507228744
30
0
10
-363.03226762663456
20
-9.1224121896812154
30
0
10
-362.9457750741995
20
-9.325754431584377
30
0
10
-362.9221
20
-9.5022357020773089
30
0
10
-362.9221
20
-9.5913900000000201
30
0
0
LINE
5
1092
100
AcDbEntity
8
0
100
AcDbLine
10
-364.9221
20
-8.5913900000000432
30
0
11
-363.9221
21
-8.5913900000000432
31
0
0
SPLINE
5
1093
100
AcDbEntity
8
0
100
AcDbSpline
70
1064
71
3
72
20
73
16
74
0
42
0.000000001
43
0.0000000001
44
0.0000000001
40
0
40
0
40
0
40
0
40
0.20000000000000001
40
0.20000000000000001
40
0.20000000000000001
40
0.20000001000000001
40
0.40000000000000002
40
0.40000000000000002
40
0.40000000000000002
40
0.40000001000000018
40
0.59999999999999998
40
0.59999999999999998
40
0.59999999999999998
40
0.60000001000000025
40
1
40
1
40
1
40
1
10
-233.149599956657
20
-51.185907148471458
30
0
10
-233.149599956657
20
-48.555607148471466
30
0
10
-231.01739995665699
20
-46.423407148471455
30
0
10
-228.38709995665698
20
-46.423407148471455
30
0
10
-228.38709995665698
20
-46.423407148471455
30
0
10
-225.75679995665695
20
-46.423407148471455
30
0
10
-223.62459995665699
20
-48.555607148471466
30
0
10
-223.62459995665699
20
-51.185907148471458
30
0
10
-223.62459995665699
20
-51.185907148471458
30
0
10
-223.62459995665699
20
-53.816207148471484
30
0
10
-225.75679995665695
20
-55.948407148471489
30
0
10
-228.38709995665698
20
-55.948407148471489
30
0
10
-228.38709995665698
20
-55.948407148471489
30
0
10
-231.01739995665699
20
-55.948407148471489
30
0
10
-233.149599956657
20
-53.816207148471484
30
0
10
-233.149599956657
20
-51.185907148471458
30
0
0
SPLINE
5
1094
100
AcDbEntity
8
0
100
AcDbSpline
70
1064
71
3
72
20
73
16
74
0
42
0.000000001
43
0.0000000001
44
0.0000000001
40
0
40
0
40
0
40
0
40
0.20000000000000001
40
0.20000000000000001
40
0.20000000000000001
40
0.20000001000000001
40
0.40000000000000002
40
0.40000000000000002
40
0.40000000000000002
40
0.40000001000000018
40
0.59999999999999998
40
0.59999999999999998
40
0.59999999999999998
40
0.60000001000000025
40
1
40
1
40
1
40
1
10
-233.149599956657
20
15.666892851528571
30
0
10
-233.149599956657
20
18.297192851528582
30
0
10
-231.01739995665699
20
20.429392851528583
30
0
10
-228.38709995665698
20
20.429392851528583
30
0
10
-228.38709995665698
20
20.429392851528583
30
0
10
-225.75679995665695
20
20.429392851528583
30
0
10
-223.62459995665699
20
18.297192851528582
30
0
10
-223.62459995665699
20
15.666892851528571
30
0
10
-223.62459995665699
20
15.666892851528571
30
0
10
-223.62459995665699
20
13.036592851528459
30
0
10
-225.75679995665695
20
10.90439285152857
30
0
10
-228.38709995665698
20
10.90439285152857
30
0
10
-228.38709995665698
20
10.90439285152857
30
0
10
-231.01739995665699
20
10.90439285152857
30
0
10
-233.149599956657
20
13.036592851528459
30
0
10
-233.149599956657
20
15.666892851528571
30
0
0
SPLINE
5
1095
100
AcDbEntity
8
0
100
AcDbSpline
70
1064
71
3
72
30
73
26
74
0
42
0.000000001
43
0.0000000001
44
0.0000000001
40
0
40
0
40
0
40
0
40
2.1479045878200001e-05
40
4.2948217859399997e-05
40
8.5856377051599997e-05
40
0.00017155327693220001
40
0.00025709388871120002
40
0.00034248138909790001
40
0.00051280801808379999
40
0.00068255931540840004
40
0.00085175923366110002
40
0.0010204310772611001
40
0.0013562685102893001
40
0.0016902573553622001
40
0.0020225610477632001
40
0.0026826251802472001
40
0.0033376686116719
40
0.0039886599736433
40
0.0052810407330674998
40
0.0065658689914647999
40
0.0078472468882195001
40
0.0091286155194227996
40
0.010413413860526801
40
0.0130054312626889
40
0.015679725330742598
40
0.015679725330742598
40
0.015679725330742598
40
0.015679725330742598
10
-343.44310000000002
20
-9.5913900000000201
30
0
10
-343.44291201780896
20
-9.5906991504118722
30
0
10
-343.44318330356992
20
-9.5892310890570798
30
0
10
-343.44304102113426
20
-9.5863870122926169
30
0
10
-343.44309203279079
20
-9.581373537657873
30
0
10
-343.44295438824213
20
-9.5742420414125284
30
0
10
-343.44278699739323
20
-9.5656877305852088
30
0
10
-343.44244304916867
20
-9.554318161396596
30
0
10
-343.4418417606114
20
-9.5401477677924795
30
0
10
-343.44083004939813
20
-9.5232012806933319
30
0
10
-343.43953571596433
20
-9.5063292184237529
30
0
10
-343.43743785771579
20
-9.4839695598592222
30
0
10
-343.43412092554308
20
-9.4562113415035771
30
0
10
-343.42903798120642
20
-9.4231894434188845
30
0
10
-343.42084340043641
20
-9.3797365641218793
30
0
10
-343.4079612743156
20
-9.326309896695955
30
0
10
-343.38838196724305
20
-9.2637150368177501
30
0
10
-343.3571206902929
20
-9.182884130385192
30
0
10
-343.30854946045451
20
-9.08649520002262
30
0
10
-343.23623362557134
20
-8.9797182448109325
30
0
10
-343.15122846892422
20
-8.8832278679394587
30
0
10
-343.05471933088836
20
-8.798222632424773
30
0
10
-342.9120370542455
20
-8.701580298070775
30
0
10
-342.70871202378771
20
-8.6150747446903964
30
0
10
-342.53224313560179
20
-8.5913900000000432
30
0
10
-342.44309999999996
20
-8.5913900000000432
30
0
0
LINE
5
1096
100
AcDbEntity
8
0
100
AcDbLine
10
-343.44310000000002
20
-32.991390000000017
30
0
11
-343.44310000000002
21
-9.5913900000000201
31
0
0
SPLINE
5
1097
100
AcDbEntity
8
0
100
AcDbSpline
70
1064
71
3
72
30
73
26
74
0
42
0.000000001
43
0.0000000001
44
0.0000000001
40
0
40
0
40
0
40
0
40
2.1474902556400001e-05
40
4.2940198904400002e-05
40
8.5840667415399997e-05
40
0.00017152242646329999
40
0.00025704821455520001
40
0.00034242120420780001
40
0.00051271973425869998
40
0.00068244413416979999
40
0.0008516183230509
40
0.0010202655719405
40
0.0013560570906315001
40
0.0016900041641023001
40
0.0020222699688968999
40
0.0026822690051994001
40
0.0033372599423943999
40
0.0039882096345998999
40
0.0052805335440449996
40
0.0065653318894011003
40
0.0078467005337822006
40
0.0091280784533587997
40
0.010412906745521699
40
0.0130050733521524
40
0.015679720921447399
40
0.015679720921447399
40
0.015679720921447399
40
0.015679720921447399
10
-342.44309999999996
20
-33.99139000000001
30
0
10
-342.44379071984531
20
-33.991202067016772
30
0
10
-342.44525850190541
20
-33.991473282865378
30
0
10
-342.44810206067308
20
-33.991331035388221
30
0
10
-342.45311464162739
20
-33.991382034230384
30
0
10
-342.46024488475172
20
-33.991244420938727
30
0
10
-342.4687977129546
20
-33.991077066728252
30
0
10
-342.48016536920261
20
-33.990733193134574
30
0
10
-342.49433344899751
20
-33.990132033164763
30
0
10
-342.51127725309681
20
-33.989120537431099
30
0
10
-342.52814675437651
20
-33.987826476293414
30
0
10
-342.55050323093224
20
-33.985729047460467
30
0
10
-342.57825775740741
20
-33.98241277839989
30
0
10
-342.61127557296129
20
-33.977330839392565
30
0
10
-342.65472382917255
20
-33.969137792972937
30
0
10
-342.70814570458361
20
-33.956257965120095
30
0
10
-342.77073604123268
20
-33.93668203536506
30
0
10
-342.85156339305928
20
-33.905425567610308
30
0
10
-342.94795078156079
20
-33.856860989399351
30
0
10
-343.05472948553728
20
-33.784553555862018
30
0
10
-343.15122492386678
20
-33.699555685609468
30
0
10
-343.23623744245594
20
-33.603051598354575
30
0
10
-343.33289215102445
20
-33.460370031041535
30
0
10
-343.41941289052443
20
-33.257031156880117
30
0
10
-343.44310000000002
20
-33.080544918976514
30
0
10
-343.44310000000002
20
-32.991390000000017
30
0
0
LINE
5
1098
100
AcDbEntity
8
0
100
AcDbLine
10
-341.44309999999996
20
-33.99139000000001
30
0
11
-342.44309999999996
21
-33.99139000000001
31
0
0
SPLINE
5
1099
100
AcDbEntity
8
0
100
AcDbSpline
70
1064
71
3
72
30
73
26
74
0
42
0.000000001
43
0.0000000001
44
0.0000000001
40
0
40
0
40
0
40
0
40
2.1478798543199999e-05
40
4.2947970602900001e-05
40
8.5856129370299994e-05
40
0.00017155302378849999
40
0.0002570936192799
40
0.0003424810873404
40
0.00051280758466449997
40
0.00068255862696649998
40
0.00085175813006190004
40
0.0010204293638347
40
0.0013562648750351
40
0.0016902506611453001
40
0.0020225499632604998
40
0.0026826007758881999
40
0.0033376241351656998
40
0.0039885884232458996
40
0.0052808957888940003
40
0.0065656325812219994
40
0.0078469163966478003
40
0.0091282094859019003
40
0.0104129762215585
40
0.0130051727161524
40
0.0156801550529913
40
0.0156801550529913
40
0.0156801550529913
40
0.0156801550529913
10
-340.44309999999996
20
-32.991390000000017
30
0
10
-340.44328792325712
20
-32.992080857077497
30
0
10
-340.44301672125619
20
-32.993548887494299
30
0
10
-340.4431589596112
20
-32.996392966911628
30
0
10
-340.44310795824737
20
-33.001406434671303
30
0
10
-340.4432455485254
20
-33.008537934396017
30
0
10
-340.44341286362146
20
-33.017092243829737
30
0
10
-340.44375666226119
20
-33.028461811721137
30
0
10
-340.44435769007771
20
-33.042632201661256
30
0
10
-340.44536896908852
20
-33.059578687170784
30
0
10
-340.44666275659961
20
-33.076450747842216
30
0
10
-340.44875974019072
20
-33.098810389104017
30
0
10
-340.45207531274491
20
-33.126568577971611
30
0
10
-340.45715623460461
20
-33.159590466982721
30
0
10
-340.46534762979127
20
-33.203043237833171
30
0
10
-340.47822493386445
20
-33.256469747650321
30
0
10
-340.49779744017985
20
-33.319064604256234
30
0
10
-340.52904848964096
20
-33.399895137501744
30
0
10
-340.57760563043485
20
-33.496283969015607
30
0
10
-340.64990514903934
20
-33.603061630706875
30
0
10
-340.73489644250282
20
-33.699552798664591
30
0
10
-340.83139625631611
20
-33.784558725655629
30
0
10
-340.97407922750517
20
-33.881204826758989
30
0
10
-341.1774353080524
20
-33.967712561224502
30
0
10
-341.35393392210528
20
-33.99139000000001
30
0
10
-341.44309999999996
20
-33.99139000000001
30
0
0
LINE
5
1100
100
AcDbEntity
8
0
100
AcDbLine
10
-340.44309999999996
20
-9.5913900000000201
30
0
11
-340.44309999999996
21
-32.991390000000017
31
0
0
SPLINE
5
1101
100
AcDbEntity
8
0
100
AcDbSpline
70
1064
71
3
72
30
73
26
74
0
42
0.000000001
43
0.0000000001
44
0.0000000001
40
0
40
0
40
0
40
0
40
2.14826945413e-05
40
4.2955742409499997e-05
40
8.5871592209500004e-05
40
0.00017158362816199998
40
0.00025713904803970002
40
0.00034254102753030001
40
0.00051289562517969998
40
0.00068267356627420002
40
0.00085189880010939998
40
0.0010205946299475001
40
0.0013564760581522
40
0.0016905036184554001
40
0.0020228408106874999
40
0.0026829567242515999
40
0.0033380325821785999
40
0.0039890385442204
40
0.0052814027683525996
40
0.0065661694843536997
40
0.0078474625671890001
40
0.0091287463890435006
40
0.010413483201038401
40
0.013005530564086
40
0.0156801595017672
40
0.0156801595017672
40
0.0156801595017672
40
0.0156801595017672
10
-341.44309999999996
20
-8.5913900000000432
30
0
10
-341.44240902112972
20
-8.5915779702854049
30
0
10
-341.44094071994505
20
-8.591306700443706
30
0
10
-341.43809613079497
20
-8.5914489739309179
30
0
10
-341.433081769257
20
-8.5913979591398792
30
0
10
-341.42594901638091
20
-8.591535580654595
30
0
10
-341.41739322423609
20
-8.5917029320026632
30
0
10
-341.40602174330178
20
-8.5920468048889731
30
0
10
-341.39184903941378
20
-8.592647960775821
30
0
10
-341.37489987072968
20
-8.593659454674059
30
0
10
-341.35802524888419
20
-8.5949535138943745
30
0
10
-341.3356624253571
20
-8.5970509261375483
30
0
10
-341.3079005442674
20
-8.6003671608757593
30
0
10
-341.27487457228
20
-8.6054490869904559
30
0
10
-341.23141717771597
20
-8.6136420151642312
30
0
10
-341.17798587502432
20
-8.6265216159068814
30
0
10
-341.11538649403656
20
-8.6460974977947913
30
0
10
-341.0345524045315
20
-8.6773533543963648
30
0
10
-340.93816202881351
20
-8.725917144747779
30
0
10
-340.83138611296647
20
-8.7982250631465142
30
0
10
-340.73490000359931
20
-8.8832236423681721
30
0
10
-340.64990135696792
20
-8.979728507228744
30
0
10
-340.55326762663447
20
-9.1224121896812154
30
0
10
-340.46677507419963
20
-9.3257544315843592
30
0
10
-340.44309999999996
20
-9.5022357020773089
30
0
10
-340.44309999999996
20
-9.5913900000000201
30
0
0
LINE
5
1102
100
AcDbEntity
8
0
100
AcDbLine
10
-342.44309999999996
20
-8.5913900000000432
30
0
11
-341.44309999999996
21
-8.5913900000000432
31
0
0
SPLINE
5
1103
100
AcDbEntity
8
0
100
AcDbSpline
70
1064
71
3
72
20
73
16
74
0
42
0.000000001
43
0.0000000001
44
0.0000000001
40
0
40
0
40
0
40
0
40
0.20000000000000001
40
0.20000000000000001
40
0.20000000000000001
40
0.20000001000000001
40
0.40000000000000002
40
0.40000000000000002
40
0.40000000000000002
40
0.40000001000000018
40
0.59999999999999998
40
0.59999999999999998
40
0.59999999999999998
40
0.60000001000000025
40
1
40
1
40
1
40
1
10
-147.14960000000002
20
15.666910000000001
30
0
10
-147.14960000000002
20
18.297209999999968
30
0
10
-145.01740000000001
20
20.42940999999999
30
0
10
-142.3871
20
20.42940999999999
30
0
10
-142.3871
20
20.42940999999999
30
0
10
-139.75679999999988
20
20.42940999999999
30
0
10
-137.62460000000002
20
18.297209999999968
30
0
10
-137.62460000000002
20
15.666910000000001
30
0
10
-137.62460000000002
20
15.666910000000001
30
0
10
-137.62460000000002
20
13.03660999999998
30
0
10
-139.75679999999988
20
10.90441
30
0
10
-142.3871
20
10.90441
30
0
10
-142.3871
20
10.90441
30
0
10
-145.01740000000001
20
10.90441
30
0
10
-147.14960000000002
20
13.03660999999998
30
0
10
-147.14960000000002
20
15.666910000000001
30
0
0
LINE
5
1104
100
AcDbEntity
8
0
100
AcDbLine
10
-260.57614048647787
20
-500.77455863348655
30
0
11
-247.37627300346688
21
-500.77597929432284
31
0
0
LINE
5
1105
100
AcDbEntity
8
0
100
AcDbLine
10
-273.37695325628283
20
-500.77455863348655
30
0
11
-273.37641509122426
21
-503.97455970619689
31
0
0
LINE
5
1106
100
AcDbEntity
8
0
100
AcDbLine
10
-65.376273003467134
20
-652.97453692347869
30
0
11
-78.576165578312938
21
-652.97455863348637
31
0
0
LINE
5
1107
100
AcDbEntity
8
0
100
AcDbLine
10
-221.37630617558602
20
-500.77455863348655
30
0
11
-221.3762884837833
21
-503.97455970619689
31
0
0
LINE
5
1108
100
AcDbEntity
8
0
100
AcDbLine
10
-234.57627300346698
20
-500.77456104688844
30
0
11
-221.37630617558602
21
-500.77455863348655
31
0
0
LINE
5
1109
100
AcDbEntity
8
0
100
AcDbLine
10
-286.57616436664142
20
-503.97455970619689
30
0
11
-286.57563232335184
21
-500.77455863348655
31
0
0
LINE
5
1110
100
AcDbEntity
8
0
100
AcDbLine
10
-247.37627300346688
20
-500.77597929432284
30
0
11
-247.37626204348331
21
-503.97455970619689
31
0
0
LINE
5
1111
100
AcDbEntity
8
0
100
AcDbLine
10
-260.57627300346689
20
-649.77430152315321
30
0
11
-273.37627300346702
21
-649.77430152315321
31
0
0
LINE
5
1112
100
AcDbEntity
8
0
100
AcDbLine
10
-286.57563232335184
20
-500.77455863348655
30
0
11
-273.37695325628283
21
-500.77455863348655
31
0
0
LINE
5
1113
100
AcDbEntity
8
0
100
AcDbLine
10
-247.37635715755357
20
-649.77430152315321
30
0
11
-247.37645335466343
21
-652.97455863348637
31
0
0
LINE
5
1114
100
AcDbEntity
8
0
100
AcDbLine
10
-78.576222876332324
20
-649.77430152315321
30
0
11
-221.37163342947264
21
-649.77430152315321
31
0
0
LINE
5
1115
100
AcDbEntity
8
0
100
AcDbLine
10
-247.37626204348331
20
-503.97455970619689
30
0
11
-234.57627300346698
21
-503.97455970619689
31
0
0
LINE
5
1116
100
AcDbEntity
8
0
100
AcDbLine
10
-78.576273003467122
20
-500.77467671690357
30
0
11
-65.376273003467134
21
-500.77492462155499
31
0
0
LINE
5
1117
100
AcDbEntity
8
0
100
AcDbLine
10
-221.37163342947264
20
-649.77430152315321
30
0
11
-221.3663301457477
21
-652.97455863348637
31
0
0
LINE
5
1118
100
AcDbEntity
8
0
100
AcDbLine
10
-286.57625825730162
20
-652.97455863348637
30
0
11
-286.57626612436752
21
-649.77430152315321
31
0
0
LINE
5
1119
100
AcDbEntity
8
0
100
AcDbLine
10
-273.37627300346702
20
-652.97349952140212
30
0
11
-286.57625825730162
21
-652.97455863348637
31
0
0
LINE
5
1120
100
AcDbEntity
8
0
100
AcDbLine
10
-78.576273003467136
20
-503.97455970619689
30
0
11
-78.576273003467122
21
-500.77467671690357
31
0
0
LINE
5
1121
100
AcDbEntity
8
0
100
AcDbLine
10
-234.57627300346698
20
-503.97455970619689
30
0
11
-234.57627300346698
21
-500.77456104688844
31
0
0
LINE
5
1122
100
AcDbEntity
8
0
100
AcDbLine
10
-52.576273003467122
20
-503.97455970619689
30
0
11
-52.576273003467122
21
-500.77496530317751
31
0
0
LINE
5
1123
100
AcDbEntity
8
0
100
AcDbLine
10
-338.57627300346701
20
-503.97455970619689
30
0
11
-338.57627300346701
21
-500.77539594195423
31
0
0
LINE
5
1124
100
AcDbEntity
8
0
100
AcDbLine
10
15.923649587835909
20
-503.97455970619689
30
0
11
15.923649587835909
21
-524.02449443669036
31
0
0
LINE
5
1125
100
AcDbEntity
8
0
100
AcDbLine
10
-455.37627300346679
20
-500.77466569256961
30
0
11
-455.37627300346691
21
-503.97455970619689
31
0
0
LINE
5
1126
100
AcDbEntity
8
0
100
AcDbLine
10
-455.37627300346691
20
-503.97455970619689
30
0
11
-338.57627300346701
21
-503.97455970619689
31
0
0
LINE
5
1127
100
AcDbEntity
8
0
100
AcDbLine
10
-325.37667090148028
20
-652.97455863348637
30
0
11
-338.57627300346689
21
-652.97267923027005
31
0
0
LINE
5
1128
100
AcDbEntity
8
0
100
AcDbLine
10
-299.37642386897176
20
-500.77455863348655
30
0
11
-299.375807046977
21
-503.97455970619689
31
0
0
LINE
5
1129
100
AcDbEntity
8
0
100
AcDbLine
10
-312.57628794540273
20
-503.97455970619689
30
0
11
-312.57627300346689
21
-500.7760185677846
31
0
0
LINE
5
1130
100
AcDbEntity
8
0
100
AcDbLine
10
-65.376273003467134
20
-500.77492462155499
30
0
11
-65.376273003467134
21
-503.97455970619689
31
0
0
LINE
5
1131
100
AcDbEntity
8
0
100
AcDbLine
10
-312.57627300346689
20
-500.7760185677846
30
0
11
-299.37642386897176
21
-500.77455863348655
31
0
0
LINE
5
1132
100
AcDbEntity
8
0
100
AcDbLine
10
-299.37674429483269
20
-649.77430152315321
30
0
11
-299.37741105628163
21
-652.97455863348637
31
0
0
LINE
5
1133
100
AcDbEntity
8
0
100
AcDbLine
10
-299.37741105628163
20
-652.97455863348637
30
0
11
-312.575961431868
21
-652.97455863348637
31
0
0
LINE
5
1134
100
AcDbEntity
8
0
100
AcDbLine
10
-468.57627300346667
20
-500.77494474721135
30
0
11
-455.37627300346679
21
-500.77466569256961
31
0
0
LINE
5
1135
100
AcDbEntity
8
0
100
AcDbLine
10
15.923649587835909
20
-524.02449443669036
30
0
11
19.123649587835839
21
-524.02455863348655
31
0
0
LINE
5
1136
100
AcDbEntity
8
0
100
AcDbLine
10
-549.87627300346674
20
-557.27455863348655
30
0
11
-549.87627300346674
21
-544.47437974022489
31
0
0
LINE
5
1137
100
AcDbEntity
8
0
100
AcDbLine
10
-312.57650031376943
20
-649.77430152315321
30
0
11
-325.37614696052577
21
-649.77430152315333
31
0
0
LINE
5
1138
100
AcDbEntity
8
0
100
AcDbLine
10
19.123726996532749
20
-544.47413678975261
30
0
11
15.923649587835909
21
-544.4743617853045
31
0
0
LINE
5
1139
100
AcDbEntity
8
0
100
AcDbLine
10
-5.1262730034672188
20
-503.97455970619689
30
0
11
15.923649587835909
21
-503.97455970619689
31
0
0
LINE
5
1140
100
AcDbEntity
8
0
100
AcDbLine
10
19.123649587835839
20
-524.02455863348655
30
0
11
15.923649587835909
21
-524.02455863348655
31
0
0
LINE
5
1141
100
AcDbEntity
8
0
100
AcDbLine
10
-325.37627300346696
20
-500.77455970071441
30
0
11
-325.37517991962943
21
-503.97455970619689
31
0
0
LINE
5
1142
100
AcDbEntity
8
0
100
AcDbLine
10
-26.576259498426111
20
-503.97455970619689
30
0
11
-26.576244063934801
21
-500.77455863348644
31
0
0
LINE
5
1143
100
AcDbEntity
8
0
100
AcDbLine
10
-65.376273003467134
20
-503.97455970619689
30
0
11
-52.576273003467122
21
-503.97455970619689
31
0
0
LINE
5
1144
100
AcDbEntity
8
0
100
AcDbLine
10
-299.375807046977
20
-503.97455970619689
30
0
11
-286.57616436664142
21
-503.97455970619689
31
0
0
LINE
5
1145
100
AcDbEntity
8
0
100
AcDbLine
10
19.123585436063589
20
-570.47455863348648
30
0
11
15.923649587835909
21
-570.47466286547854
31
0
0
LINE
5
1146
100
AcDbEntity
8
0
100
AcDbLine
10
19.123649587835839
20
-524.02455863348655
30
0
11
19.123726996532749
21
-544.47413678975261
31
0
0
LINE
5
1147
100
AcDbEntity
8
0
100
AcDbLine
10
19.123726996532749
20
-557.2750037222836
30
0
11
19.123585436063589
21
-570.47455863348648
31
0
0
LINE
5
1148
100
AcDbEntity
8
0
100
AcDbLine
10
15.923649587835909
20
-557.27476632501396
30
0
11
19.123726996532749
21
-557.2750037222836
31
0
0
LINE
5
1149
100
AcDbEntity
8
0
100
AcDbLine
10
15.923649587835909
20
-544.4743617853045
30
0
11
15.923649587835909
21
-557.27476632501396
31
0
0
LINE
5
1150
100
AcDbEntity
8
0
100
AcDbLine
10
-468.57627300346667
20
-503.97455970619689
30
0
11
-468.57627300346667
21
-500.77494474721135
31
0
0
LINE
5
1151
100
AcDbEntity
8
0
100
AcDbLine
10
-286.57626612436752
20
-649.77430152315321
30
0
11
-299.37674429483269
21
-649.77430152315321
31
0
0
LINE
5
1152
100
AcDbEntity
8
0
100
AcDbLine
10
-553.07596389062826
20
-557.27455863348655
30
0
11
-549.87627300346674
21
-557.27455863348655
31
0
0
LINE
5
1153
100
AcDbEntity
8
0
100
AcDbLine
10
-325.37517991962943
20
-503.97455970619689
30
0
11
-312.57628794540273
21
-503.97455970619689
31
0
0
LINE
5
1154
100
AcDbEntity
8
0
100
AcDbLine
10
-338.57627300346689
20
-649.77430152315333
30
0
11
-455.37629058674889
21
-649.77430152315333
31
0
0
LINE
5
1155
100
AcDbEntity
8
0
100
AcDbLine
10
-5.1262730034672188
20
-500.77455889894907
30
0
11
-5.1262730034672188
21
-503.97455970619689
31
0
0
LINE
5
1156
100
AcDbEntity
8
0
100
AcDbLine
10
-39.376208961995182
20
-503.97455970619689
30
0
11
-26.576259498426111
21
-503.97455970619689
31
0
0
LINE
5
1157
100
AcDbEntity
8
0
100
AcDbLine
10
-39.37627300346719
20
-500.77465525958064
30
0
11
-39.376208961995182
21
-503.97455970619689
31
0
0
LINE
5
1158
100
AcDbEntity
8
0
100
AcDbLine
10
-26.576244063934801
20
-500.77455863348644
30
0
11
-5.1262730034672188
21
-500.77455889894907
31
0
0
LINE
5
1159
100
AcDbEntity
8
0
100
AcDbLine
10
-52.576273003467122
20
-500.77496530317751
30
0
11
-39.37627300346719
21
-500.77465525958064
31
0
0
LINE
5
1160
100
AcDbEntity
8
0
100
AcDbLine
10
-338.57627300346701
20
-500.77539594195423
30
0
11
-325.37627300346696
21
-500.77455970071441
31
0
0
LINE
5
1161
100
AcDbEntity
8
0
100
AcDbLine
10
-553.07627300346655
20
-629.72442723120025
30
0
11
-549.87627300346662
21
-629.72442723120025
31
0
0
LINE
5
1162
100
AcDbEntity
8
0
100
AcDbLine
10
-549.87627300346674
20
-583.2745889671578
30
0
11
-549.87627300346674
21
-570.47467448996622
31
0
0
LINE
5
1163
100
AcDbEntity
8
0
100
AcDbLine
10
-549.87627300346662
20
-649.77430152315333
30
0
11
-549.87627300346662
21
-629.72449733184885
31
0
0
LINE
5
1164
100
AcDbEntity
8
0
100
AcDbLine
10
-553.07625794580179
20
-609.27455863348644
30
0
11
-549.87627300346674
21
-609.27455589693864
31
0
0
LINE
5
1165
100
AcDbEntity
8
0
100
AcDbLine
10
-481.37614908413275
20
-652.97455863348637
30
0
11
-494.57614908413285
21
-652.97455863348637
31
0
0
LINE
5
1166
100
AcDbEntity
8
0
100
AcDbLine
10
-468.57627300346667
20
-649.77430152315333
30
0
11
-481.37621518930939
21
-649.77430152315333
31
0
0
LINE
5
1167
100
AcDbEntity
8
0
100
AcDbLine
10
-553.07626335221698
20
-596.47455863348648
30
0
11
-553.07627300346667
21
-583.27462363495681
31
0
0
LINE
5
1168
100
AcDbEntity
8
0
100
AcDbLine
10
-553.07627300346655
20
-629.72442723120025
30
0
11
-553.07625794580179
21
-609.27455863348644
31
0
0
LINE
5
1169
100
AcDbEntity
8
0
100
AcDbLine
10
-481.37621518930939
20
-649.77430152315333
30
0
11
-481.37614908413275
21
-652.97455863348637
31
0
0
LINE
5
1170
100
AcDbEntity
8
0
100
AcDbLine
10
-507.37627300346674
20
-649.77430152315333
30
0
11
-507.37627300346674
21
-652.97434882720324
31
0
0
LINE
5
1171
100
AcDbEntity
8
0
100
AcDbLine
10
-553.07627300346667
20
-583.27462363495681
30
0
11
-549.87627300346674
21
-583.2745889671578
31
0
0
LINE
5
1172
100
AcDbEntity
8
0
100
AcDbLine
10
-549.87627300346674
20
-596.47580212286994
30
0
11
-553.07626335221698
21
-596.47455863348648
31
0
0
LINE
5
1173
100
AcDbEntity
8
0
100
AcDbLine
10
-507.37627300346674
20
-652.97434882720324
30
0
11
-528.82627300346667
21
-652.97431790581356
31
0
0
LINE
5
1174
100
AcDbEntity
8
0
100
AcDbLine
10
-549.87627300346674
20
-609.27455589693864
30
0
11
-549.87627300346674
21
-596.47580212286994
31
0
0
LINE
5
1175
100
AcDbEntity
8
0
100
AcDbLine
10
-494.57614908413285
20
-652.97455863348637
30
0
11
-494.57621518081953
21
-649.77430152315333
31
0
0
LINE
5
1176
100
AcDbEntity
8
0
100
AcDbLine
10
-528.82627300346667
20
-652.97431790581356
30
0
11
-528.82627300346667
21
-649.77430152315333
31
0
0
LINE
5
1177
100
AcDbEntity
8
0
100
AcDbLine
10
-528.82627300346667
20
-649.77430152315333
30
0
11
-549.87627300346662
21
-649.77430152315333
31
0
0
LINE
5
1178
100
AcDbEntity
8
0
100
AcDbLine
10
-549.87627300346662
20
-629.72449733184885
30
0
11
-553.07627300346655
21
-629.72442723120025
31
0
0
LINE
5
1179
100
AcDbEntity
8
0
100
AcDbLine
10
-494.57621518081953
20
-649.77430152315333
30
0
11
-507.37627300346674
21
-649.77430152315333
31
0
0
CIRCLE
5
1180
100
AcDbEntity
8
0
100
AcDbCircle
10
-195.8430571141545
20
-410.92360344322907
30
0
40
4.2475000000000165
0
CIRCLE
5
1181
100
AcDbEntity
8
0
100
AcDbCircle
10
-337.8138938599381
20
-410.92360344322907
30
0
40
4.2474999999999667
0
LINE
5
1182
100
AcDbEntity
8
0
100
AcDbLine
10
-332.81964684047193
20
-581.87443061467502
30
0
11
-342.81964684047193
21
-581.87443061467502
31
0
0
LINE
5
1183
100
AcDbEntity
8
0
100
AcDbLine
10
-342.81964684047193
20
-581.87443061467502
30
0
11
-342.81964684047193
21
-571.87443061467502
31
0
0
LINE
5
1184
100
AcDbEntity
8
0
100
AcDbLine
10
-342.81964684047193
20
-571.87443061467502
30
0
11
-332.81964684047193
21
-571.87443061467502
31
0
0
LINE
5
1185
100
AcDbEntity
8
0
100
AcDbLine
10
-332.81964684047193
20
-571.87443061467502
30
0
11
-332.81964684047193
21
-581.87443061467502
31
0
0
LINE
5
1186
100
AcDbEntity
8
0
100
AcDbLine
10
-332.81964684047193
20
-581.87443061467502
30
0
11
-342.81964684047193
21
-571.87443061467502
31
0
0
LINE
5
1187
100
AcDbEntity
8
0
100
AcDbLine
10
-342.81964684047193
20
-581.87443061467502
30
0
11
-332.81964684047193
21
-571.87443061467502
31
0
0
LINE
5
1188
100
AcDbEntity
8
0
100
AcDbLine
10
-191.21764232753401
20
-581.87443061467502
30
0
11
-201.21764232753401
21
-581.87443061467502
31
0
0
LINE
5
1189
100
AcDbEntity
8
0
100
AcDbLine
10
-201.21764232753401
20
-581.87443061467502
30
0
11
-201.21764232753401
21
-571.87443061467502
31
0
0
LINE
5
1190
100
AcDbEntity
8
0
100
AcDbLine
10
-201.21764232753401
20
-571.87443061467502
30
0
11
-191.21764232753401
21
-571.87443061467502
31
0
0
LINE
5
1191
100
AcDbEntity
8
0
100
AcDbLine
10
-191.21764232753401
20
-571.87443061467502
30
0
11
-191.21764232753401
21
-581.87443061467502
31
0
0
LINE
5
1192
100
AcDbEntity
8
0
100
AcDbLine
10
-191.21764232753401
20
-581.87443061467502
30
0
11
-201.21764232753401
21
-571.87443061467502
31
0
0
LINE
5
1193
100
AcDbEntity
8
0
100
AcDbLine
10
-201.21764232753401
20
-581.87443061467502
30
0
11
-191.21764232753401
21
-571.87443061467502
31
0
0
LINE
5
1194
100
AcDbEntity
8
0
100
AcDbLine
10
383.03810013227644
20
-440.40925322724399
30
0
11
370.23822593139363
21
-440.40925322724399
31
0
0
LINE
5
1195
100
AcDbEntity
8
0
100
AcDbLine
10
318.23824372628519
20
-440.40925322724399
30
0
11
318.23824326355913
21
-437.20925443394424
31
0
0
LINE
5
1196
100
AcDbEntity
8
0
100
AcDbLine
10
318.23824326355913
20
-437.20925443394424
30
0
11
305.03825800971561
21
-437.20925322724395
31
0
0
LINE
5
1197
100
AcDbEntity
8
0
100
AcDbLine
10
383.03824326355868
20
-437.20925323306176
30
0
11
383.03810013227644
21
-440.40925322724399
31
0
0
LINE
5
1198
100
AcDbEntity
8
0
100
AcDbLine
10
344.23824037762864
20
-440.40925322724399
30
0
11
344.23822853309781
21
-437.20925322724389
31
0
0
LINE
5
1199
100
AcDbEntity
8
0
100
AcDbLine
10
292.23810693649318
20
-440.40925322724399
30
0
11
292.23653030189899
21
-437.20925322724395
31
0
0
LINE
5
1200
100
AcDbEntity
8
0
100
AcDbLine
10
370.23822593139363
20
-440.40925322724399
30
0
11
370.23814368524279
21
-437.20925322724389
31
0
0
LINE
5
1201
100
AcDbEntity
8
0
100
AcDbLine
10
331.03824326355914
20
-437.20925443180397
30
0
11
331.03824280555074
21
-440.40925322724399
31
0
0
LINE
5
1202
100
AcDbEntity
8
0
100
AcDbLine
10
357.03824326355908
20
-437.21002300498236
30
0
11
357.03820683761103
21
-440.40925322724399
31
0
0
LINE
5
1203
100
AcDbEntity
8
0
100
AcDbLine
10
331.03824280555074
20
-440.40925322724399
30
0
11
318.23824372628519
21
-440.40925322724399
31
0
0
LINE
5
1204
100
AcDbEntity
8
0
100
AcDbLine
10
357.03820683761103
20
-440.40925322724399
30
0
11
344.23824037762864
21
-440.40925322724399
31
0
0
LINE
5
1205
100
AcDbEntity
8
0
100
AcDbLine
10
500.83906856773854
20
-440.41452223895277
30
0
11
500.83824314572092
21
-437.21452225339158
31
0
0
LINE
5
1206
100
AcDbEntity
8
0
100
AcDbLine
10
598.33824314571893
20
-437.21477423895271
30
0
11
573.88824314572059
21
-437.21607267973098
31
0
0
LINE
5
1207
100
AcDbEntity
8
0
100
AcDbLine
10
122.43824326355951
20
-437.20935810861181
30
0
11
122.43824326355951
21
-440.40925322545843
31
0
0
LINE
5
1208
100
AcDbEntity
8
0
100
AcDbLine
10
101.38771532594322
20
-437.20925322545844
30
0
11
76.938243263561958
21
-437.20950522545832
31
0
0
LINE
5
1209
100
AcDbEntity
8
0
100
AcDbLine
10
598.33824314572064
20
-492.81453232078218
30
0
11
595.13824314572071
21
-492.81452694379777
31
0
0
LINE
5
1210
100
AcDbEntity
8
0
100
AcDbLine
10
513.63824314572093
20
-437.21564878702685
30
0
11
513.63795834049472
21
-440.41452223895277
31
0
0
LINE
5
1211
100
AcDbEntity
8
0
100
AcDbLine
10
122.43824326355951
20
-440.40925322545843
30
0
11
101.38771532594322
21
-440.40925322545843
31
0
0
LINE
5
1212
100
AcDbEntity
8
0
100
AcDbLine
10
135.63771357631819
20
-437.20925322545838
30
0
11
122.43824326355951
21
-437.20935810861181
31
0
0
LINE
5
1213
100
AcDbEntity
8
0
100
AcDbLine
10
148.4377388083129
20
-440.40925322545837
30
0
11
135.63812852093409
21
-440.40925322545837
31
0
0
LINE
5
1214
100
AcDbEntity
8
0
100
AcDbLine
10
135.63812852093409
20
-440.40925322545837
30
0
11
135.63771357631819
21
-437.20925322545838
31
0
0
LINE
5
1215
100
AcDbEntity
8
0
100
AcDbLine
10
174.43824326355923
20
-437.20925323966401
30
0
11
174.43751418331942
21
-440.40925322545826
31
0
0
LINE
5
1216
100
AcDbEntity
8
0
100
AcDbLine
10
76.938243263561958
20
-437.20950522545832
30
0
11
76.938330014239142
21
-451.30925322545829
31
0
0
LINE
5
1217
100
AcDbEntity
8
0
100
AcDbLine
10
148.4382432635596
20
-437.20942649792062
30
0
11
148.4377388083129
21
-440.40925322545837
31
0
0
LINE
5
1218
100
AcDbEntity
8
0
100
AcDbLine
10
552.83824314572075
20
-437.2146271420317
30
0
11
539.63824314572093
21
-437.21585235984668
31
0
0
LINE
5
1219
100
AcDbEntity
8
0
100
AcDbLine
10
513.63795834049472
20
-440.41452223895277
30
0
11
500.83906856773854
21
-440.41452223895277
31
0
0
LINE
5
1220
100
AcDbEntity
8
0
100
AcDbLine
10
539.63824314572093
20
-437.21585235984668
30
0
11
539.63824314572093
21
-440.41452223895277
31
0
0
LINE
5
1221
100
AcDbEntity
8
0
100
AcDbLine
10
526.83774814507206
20
-437.21452223895278
30
0
11
513.63824314572093
21
-437.21564878702685
31
0
0
LINE
5
1222
100
AcDbEntity
8
0
100
AcDbLine
10
598.33821634544097
20
-479.11452223895265
30
0
11
598.33824314572064
21
-465.01461291632614
31
0
0
LINE
5
1223
100
AcDbEntity
8
0
100
AcDbLine
10
539.63824314572093
20
-440.41452223895277
30
0
11
526.83808256352813
21
-440.41452223895277
31
0
0
LINE
5
1224
100
AcDbEntity
8
0
100
AcDbLine
10
598.33815636939244
20
-451.31452223895275
30
0
11
598.33824314571893
21
-437.21477423895271
31
0
0
LINE
5
1225
100
AcDbEntity
8
0
100
AcDbLine
10
595.13824314572071
20
-465.01456455463705
30
0
11
595.13824314572071
21
-451.31460574723656
31
0
0
LINE
5
1226
100
AcDbEntity
8
0
100
AcDbLine
10
573.88824314572059
20
-437.21607267973098
30
0
11
573.88824314572059
21
-440.41452223895277
31
0
0
LINE
5
1227
100
AcDbEntity
8
0
100
AcDbLine
10
161.63805232095001
20
-440.40925322545837
30
0
11
161.63739393271428
21
-437.20925322545838
31
0
0
LINE
5
1228
100
AcDbEntity
8
0
100
AcDbLine
10
101.38771532594322
20
-440.40925322545843
30
0
11
101.38771532594322
21
-437.20925322545844
31
0
0
LINE
5
1229
100
AcDbEntity
8
0
100
AcDbLine
10
595.13824314572071
20
-479.11454312981596
30
0
11
598.33821634544097
21
-479.11452223895265
31
0
0
LINE
5
1230
100
AcDbEntity
8
0
100
AcDbLine
10
573.88824314572059
20
-440.41452223895277
30
0
11
552.83824314572075
21
-440.41452223895277
31
0
0
LINE
5
1231
100
AcDbEntity
8
0
100
AcDbLine
10
174.43751418331942
20
-440.40925322545826
30
0
11
161.63805232095001
21
-440.40925322545837
31
0
0
LINE
5
1232
100
AcDbEntity
8
0
100
AcDbLine
10
595.13824314572071
20
-492.81452694379777
30
0
11
595.13824314572071
21
-479.11454312981596
31
0
0
LINE
5
1233
100
AcDbEntity
8
0
100
AcDbLine
10
598.33824314572064
20
-465.01461291632614
30
0
11
595.13824314572071
21
-465.01456455463705
31
0
0
LINE
5
1234
100
AcDbEntity
8
0
100
AcDbLine
10
526.83808256352813
20
-440.41452223895277
30
0
11
526.83774814507206
21
-437.21452223895278
31
0
0
LINE
5
1235
100
AcDbEntity
8
0
100
AcDbLine
10
552.83824314572075
20
-440.41452223895277
30
0
11
552.83824314572075
21
-437.2146271420317
31
0
0
LINE
5
1236
100
AcDbEntity
8
0
100
AcDbLine
10
161.63739393271428
20
-437.20925322545838
30
0
11
148.4382432635596
21
-437.20942649792062
31
0
0
LINE
5
1237
100
AcDbEntity
8
0
100
AcDbLine
10
595.13824314572071
20
-451.31460574723656
30
0
11
598.33815636939244
21
-451.31452223895275
31
0
0
LINE
5
1238
100
AcDbEntity
8
0
100
AcDbLine
10
76.93824326355977
20
-465.00934386262077
30
0
11
76.938270049577284
21
-479.1092532254583
31
0
0
LINE
5
1239
100
AcDbEntity
8
0
100
AcDbLine
10
76.938330014239142
20
-451.30925322545829
30
0
11
80.138330014239159
21
-451.30925322545829
31
0
0
LINE
5
1240
100
AcDbEntity
8
0
100
AcDbLine
10
80.138330014239159
20
-492.80925440025925
30
0
11
76.93824326355977
21
-492.80925574297123
31
0
0
LINE
5
1241
100
AcDbEntity
8
0
100
AcDbLine
10
80.138330014239159
20
-479.10927410299018
30
0
11
80.138330014239159
21
-492.80925440025925
31
0
0
LINE
5
1242
100
AcDbEntity
8
0
100
AcDbLine
10
76.93824326355977
20
-492.80925574297123
30
0
11
76.93824326355977
21
-506.90925322545814
31
0
0
LINE
5
1243
100
AcDbEntity
8
0
100
AcDbLine
10
598.33824314572087
20
-506.91452223843589
30
0
11
598.33824314572064
21
-492.81453232078218
31
0
0
LINE
5
1244
100
AcDbEntity
8
0
100
AcDbLine
10
80.138330014239159
20
-465.00929552106749
30
0
11
76.93824326355977
21
-465.00934386262077
31
0
0
LINE
5
1245
100
AcDbEntity
8
0
100
AcDbLine
10
76.938270049577284
20
-479.1092532254583
30
0
11
80.138330014239159
21
-479.10927410299018
31
0
0
LINE
5
1246
100
AcDbEntity
8
0
100
AcDbLine
10
80.138330014239159
20
-451.30925322545829
30
0
11
80.138330014239159
21
-465.00929552106749
31
0
0
LINE
5
1247
100
AcDbEntity
8
0
100
AcDbLine
10
370.23814368524279
20
-437.20925322724389
30
0
11
357.03824326355908
21
-437.21002300498236
31
0
0
LINE
5
1248
100
AcDbEntity
8
0
100
AcDbLine
10
292.23653030189899
20
-437.20925322724395
30
0
11
279.03834288265239
21
-437.20925322724395
31
0
0
LINE
5
1249
100
AcDbEntity
8
0
100
AcDbLine
10
266.23824326355918
20
-440.40925322724399
30
0
11
266.23824326355918
21
-437.20925323321114
31
0
0
LINE
5
1250
100
AcDbEntity
8
0
100
AcDbLine
10
279.03834288265239
20
-437.20925322724395
30
0
11
279.03826258817986
21
-440.40925322724399
31
0
0
LINE
5
1251
100
AcDbEntity
8
0
100
AcDbLine
10
279.03826258817986
20
-440.40925322724399
30
0
11
266.23824326355918
21
-440.40925322724399
31
0
0
LINE
5
1252
100
AcDbEntity
8
0
100
AcDbLine
10
305.0382446516216
20
-440.40925322724399
30
0
11
292.23810693649318
21
-440.40925322724399
31
0
0
LINE
5
1253
100
AcDbEntity
8
0
100
AcDbLine
10
344.23822853309781
20
-437.20925322724389
30
0
11
331.03824326355914
21
-437.20925443180397
31
0
0
LINE
5
1254
100
AcDbEntity
8
0
100
AcDbLine
10
305.03825800971561
20
-437.20925322724395
30
0
11
305.0382446516216
21
-440.40925322724399
31
0
0
LINE
5
1255
100
AcDbEntity
8
0
100
AcDbLine
10
76.93824326355977
20
-506.90925322545814
30
0
11
80.138243263559758
21
-506.90925322545814
31
0
0
LINE
5
1256
100
AcDbEntity
8
0
100
AcDbLine
10
80.138243263559758
20
-506.90925322545814
30
0
11
80.138243263559758
21
-520.60925322545825
31
0
0
LINE
5
1257
100
AcDbEntity
8
0
100
AcDbLine
10
80.138243263559758
20
-520.60925322545825
30
0
11
76.93824326355977
21
-520.60925322545825
31
0
0
LINE
5
1258
100
AcDbEntity
8
0
100
AcDbLine
10
76.93824326355977
20
-520.60925322545825
30
0
11
76.93824326355977
21
-534.70925322545827
31
0
0
LINE
5
1259
100
AcDbEntity
8
0
100
AcDbLine
10
598.33824314572087
20
-506.91452223843589
30
0
11
595.13824314572093
21
-506.91452223843606
31
0
0
LINE
5
1260
100
AcDbEntity
8
0
100
AcDbLine
10
595.13824314572093
20
-506.91452223843606
30
0
11
595.13824314572116
21
-520.61452223843605
31
0
0
LINE
5
1261
100
AcDbEntity
8
0
100
AcDbLine
10
595.13824314572116
20
-520.61452223843605
30
0
11
598.33824314572109
21
-520.61452223843605
31
0
0
LINE
5
1262
100
AcDbEntity
8
0
100
AcDbLine
10
598.33824314572109
20
-520.61452223843605
30
0
11
598.33824314572109
21
-534.71452223843607
31
0
0
LINE
5
1263
100
AcDbEntity
8
0
100
AcDbLine
10
344.23822853309798
20
-534.709504944174
30
0
11
331.03824326355925
21
-534.70950373961409
31
0
0
LINE
5
1264
100
AcDbEntity
8
0
100
AcDbLine
10
370.2382259313938
20
-531.50950494417407
30
0
11
370.2381436852429
21
-534.709504944174
31
0
0
LINE
5
1265
100
AcDbEntity
8
0
100
AcDbLine
10
305.03825800971578
20
-534.709504944174
30
0
11
305.03824465162182
21
-531.50950494417407
31
0
0
LINE
5
1266
100
AcDbEntity
8
0
100
AcDbLine
10
266.23824326355941
20
-531.50950494417407
30
0
11
266.23824326355941
21
-534.70950493820703
31
0
0
LINE
5
1267
100
AcDbEntity
8
0
100
AcDbLine
10
292.2381069364933
20
-531.50950494417407
30
0
11
292.23653030189928
21
-534.709504944174
31
0
0
LINE
5
1268
100
AcDbEntity
8
0
100
AcDbLine
10
344.23824037762876
20
-531.50950494417407
30
0
11
344.23822853309798
21
-534.709504944174
31
0
0
LINE
5
1269
100
AcDbEntity
8
0
100
AcDbLine
10
318.2382432635593
20
-534.70950373747382
30
0
11
305.03825800971578
21
-534.709504944174
31
0
0
LINE
5
1270
100
AcDbEntity
8
0
100
AcDbLine
10
552.83824314572132
20
-531.5147739558829
30
0
11
552.83824314572132
21
-534.71466905280397
31
0
0
LINE
5
1271
100
AcDbEntity
8
0
100
AcDbLine
10
539.63824314572105
20
-531.5147739558829
30
0
11
526.83808256352813
21
-531.5147739558829
31
0
0
LINE
5
1272
100
AcDbEntity
8
0
100
AcDbLine
10
526.83808256352813
20
-531.5147739558829
30
0
11
526.83774814507251
21
-534.71477395588283
31
0
0
LINE
5
1273
100
AcDbEntity
8
0
100
AcDbLine
10
513.63824314572128
20
-534.71364740780871
30
0
11
513.63795834049495
21
-531.5147739558829
31
0
0
LINE
5
1274
100
AcDbEntity
8
0
100
AcDbLine
10
174.43824326355937
20
-534.7095049281827
30
0
11
174.43751418331959
21
-531.50950494238839
31
0
0
LINE
5
1275
100
AcDbEntity
8
0
100
AcDbLine
10
122.43824326355951
20
-534.70940005923535
30
0
11
122.43824326355951
21
-531.5095049423885
31
0
0
LINE
5
1276
100
AcDbEntity
8
0
100
AcDbLine
10
135.63812852093409
20
-531.50950494238839
30
0
11
135.63771357631819
21
-534.70950494238832
31
0
0
LINE
5
1277
100
AcDbEntity
8
0
100
AcDbLine
10
161.63805232095024
20
-531.50950494238839
30
0
11
161.63739393271428
21
-534.70950494238832
31
0
0
LINE
5
1278
100
AcDbEntity
8
0
100
AcDbLine
10
357.03824326355908
20
-534.70873516643564
30
0
11
357.03820683761114
21
-531.50950494417407
31
0
0
LINE
5
1279
100
AcDbEntity
8
0
100
AcDbLine
10
513.63795834049495
20
-531.5147739558829
30
0
11
500.83906856773876
21
-531.5147739558829
31
0
0
LINE
5
1280
100
AcDbEntity
8
0
100
AcDbLine
10
305.03824465162182
20
-531.50950494417407
30
0
11
292.2381069364933
21
-531.50950494417407
31
0
0
LINE
5
1281
100
AcDbEntity
8
0
100
AcDbLine
10
552.83824314572132
20
-534.71466905280397
30
0
11
539.63824314572105
21
-534.71344383498888
31
0
0
LINE
5
1282
100
AcDbEntity
8
0
100
AcDbLine
10
370.2381436852429
20
-534.709504944174
30
0
11
357.03824326355908
21
-534.70873516643564
31
0
0
LINE
5
1283
100
AcDbEntity
8
0
100
AcDbLine
10
573.88824314572116
20
-531.5147739558829
30
0
11
552.83824314572132
21
-531.5147739558829
31
0
0
LINE
5
1284
100
AcDbEntity
8
0
100
AcDbLine
10
526.83774814507251
20
-534.71477395588283
30
0
11
513.63824314572128
21
-534.71364740780871
31
0
0
LINE
5
1285
100
AcDbEntity
8
0
100
AcDbLine
10
383.03824326355902
20
-534.7095049383563
30
0
11
383.03810013227678
21
-531.50950494417407
31
0
0
LINE
5
1286
100
AcDbEntity
8
0
100
AcDbLine
10
101.38771532594316
20
-534.70950494238855
30
0
11
76.938243263559613
21
-534.70925329189822
31
0
0
LINE
5
1287
100
AcDbEntity
8
0
100
AcDbLine
10
292.23653030189928
20
-534.709504944174
30
0
11
279.0383428826525
21
-534.709504944174
31
0
0
LINE
5
1288
100
AcDbEntity
8
0
100
AcDbLine
10
500.83906856773876
20
-531.5147739558829
30
0
11
500.83824314572109
21
-534.71477394144426
31
0
0
LINE
5
1289
100
AcDbEntity
8
0
100
AcDbLine
10
331.03824326355925
20
-534.70950373961409
30
0
11
331.03824280555074
21
-531.50950494417407
31
0
0
LINE
5
1290
100
AcDbEntity
8
0
100
AcDbLine
10
383.03810013227678
20
-531.50950494417407
30
0
11
370.2382259313938
21
-531.50950494417407
31
0
0
LINE
5
1291
100
AcDbEntity
8
0
100
AcDbLine
10
357.03820683761114
20
-531.50950494417407
30
0
11
344.23824037762876
21
-531.50950494417407
31
0
0
LINE
5
1292
100
AcDbEntity
8
0
100
AcDbLine
10
279.0383428826525
20
-534.709504944174
30
0
11
279.03826258818009
21
-531.50950494417407
31
0
0
LINE
5
1293
100
AcDbEntity
8
0
100
AcDbLine
10
279.03826258818009
20
-531.50950494417407
30
0
11
266.23824326355941
21
-531.50950494417407
31
0
0
LINE
5
1294
100
AcDbEntity
8
0
100
AcDbLine
10
539.63824314572105
20
-534.71344383498888
30
0
11
539.63824314572105
21
-531.5147739558829
31
0
0
LINE
5
1295
100
AcDbEntity
8
0
100
AcDbLine
10
161.63739393271428
20
-534.70950494238832
30
0
11
148.4382432635596
21
-534.7093316699262
31
0
0
LINE
5
1296
100
AcDbEntity
8
0
100
AcDbLine
10
174.43751418331959
20
-531.50950494238839
30
0
11
161.63805232095024
21
-531.50950494238839
31
0
0
LINE
5
1297
100
AcDbEntity
8
0
100
AcDbLine
10
318.2382437262853
20
-531.50950494417407
30
0
11
318.2382432635593
21
-534.70950373747382
31
0
0
LINE
5
1298
100
AcDbEntity
8
0
100
AcDbLine
10
101.38771532594316
20
-531.5095049423885
30
0
11
101.38771532594316
21
-534.70950494238855
31
0
0
LINE
5
1299
100
AcDbEntity
8
0
100
AcDbLine
10
148.4382432635596
20
-534.7093316699262
30
0
11
148.4377388083129
21
-531.50950494238839
31
0
0
LINE
5
1300
100
AcDbEntity
8
0
100
AcDbLine
10
573.88824314572116
20
-534.71322351510491
30
0
11
573.88824314572116
21
-531.5147739558829
31
0
0
LINE
5
1301
100
AcDbEntity
8
0
100
AcDbLine
10
135.63771357631819
20
-534.70950494238832
30
0
11
122.43824326355951
21
-534.70940005923535
31
0
0
LINE
5
1302
100
AcDbEntity
8
0
100
AcDbLine
10
122.43824326355951
20
-531.5095049423885
30
0
11
101.38771532594316
21
-531.5095049423885
31
0
0
LINE
5
1303
100
AcDbEntity
8
0
100
AcDbLine
10
331.03824280555074
20
-531.50950494417407
30
0
11
318.2382437262853
21
-531.50950494417407
31
0
0
LINE
5
1304
100
AcDbEntity
8
0
100
AcDbLine
10
148.4377388083129
20
-531.50950494238839
30
0
11
135.63812852093409
21
-531.50950494238839
31
0
0
LINE
5
1305
100
AcDbEntity
8
0
100
AcDbLine
10
598.33824314572109
20
-534.71452223843607
30
0
11
573.88824314572116
21
-534.71322351510491
31
0
0
LINE
5
1306
100
AcDbEntity
8
0
100
AcDbLine
10
-183.28258730839997
20
55.140329066250359
30
0
11
-183.28258730839997
21
51.940329066250357
31
0
0
LINE
5
1307
100
AcDbEntity
8
0
100
AcDbLine
10
-183.28258730839997
20
51.940329066250357
30
0
11
-186.48258730839999
21
51.940329066250357
31
0
0
LINE
5
1308
100
AcDbEntity
8
0
100
AcDbLine
10
-183.2826
20
-90.659472851528591
30
0
11
-183.2826
21
-87.459472851528588
31
0
0
LINE
5
1309
100
AcDbEntity
8
0
100
AcDbLine
10
-183.2826
20
-87.459472851528588
30
0
11
-186.48259999999999
21
-87.459472851528588
31
0
0
LINE
5
1310
100
AcDbEntity
8
0
100
AcDbLine
10
-430.99441587520516
20
-176.50915769339761
30
0
11
-339.19441587520515
21
-176.50915769339761
31
0
0
LINE
5
1311
100
AcDbEntity
8
0
100
AcDbLine
10
-430.99443345848715
20
-322.30889951035408
30
0
11
-339.19443345848714
21
-322.30889951035408
31
0
0
LINE
5
1312
100
AcDbEntity
8
0
100
AcDbLine
10
-104.18982644722668
20
-176.50704857951951
30
0
11
-221.98982644722668
21
-176.50704857951951
31
0
0
LINE
5
1313
100
AcDbEntity
8
0
100
AcDbLine
10
-104.18977632009188
20
-322.306790396476
30
0
11
-221.9897763012109
21
-322.30889951035408
31
0
0
LINE
5
1314
100
AcDbEntity
8
0
100
AcDbLine
10
-426.08259999999996
20
135.2865100124809
30
0
11
-334.28259999999995
21
135.28651000602781
31
0
0
LINE
5
1315
100
AcDbEntity
8
0
100
AcDbLine
10
-217.48260000000002
20
135.2865100058784
30
0
11
-99.682600000000022
21
135.28651001297217
31
0
0
LINE
5
1316
100
AcDbEntity
8
0
100
AcDbLine
10
-523.58259999999996
20
204.98650999827518
30
0
11
-2.1825999999999679
21
204.98650999801691
31
0
0
LINE
5
1317
100
AcDbEntity
8
0
100
AcDbLine
10
-334.28259999999995
20
130.6519434823669
30
0
11
-426.08259999999996
21
130.65194347591373
31
0
0
LINE
5
1318
100
AcDbEntity
8
0
100
AcDbLine
10
-217.48260000000002
20
130.6519434825162
30
0
11
-99.682600000000008
21
130.65194347542433
31
0
0
LINE
5
1319
100
AcDbEntity
8
0
100
AcDbLine
10
-523.58259999999996
20
60.951943490119469
30
0
11
-2.1825999999999501
21
60.951943490379705
31
0
0
LINE
5
1320
100
AcDbEntity
8
0
100
AcDbLine
10
174.43824326355923
20
-437.20925323966401
30
0
11
266.23824326355918
21
-437.20925323321114
31
0
0
LINE
5
1321
100
AcDbEntity
8
0
100
AcDbLine
10
383.03824326355868
20
-437.20925323306176
30
0
11
500.83824314572092
21
-437.21452225339158
31
0
0
LINE
5
1322
100
AcDbEntity
8
0
100
AcDbLine
10
174.43824326355937
20
-534.7095049281827
30
0
11
266.23824326355941
21
-534.70950493820703
31
0
0
LINE
5
1323
100
AcDbEntity
8
0
100
AcDbLine
10
383.03824326355902
20
-534.7095049383563
30
0
11
500.83824314572109
21
-534.71477394144426
31
0
0
LINE
5
1324
100
AcDbEntity
8
0
100
AcDbLine
10
76.93824326355977
20
-372.80925574297129
30
0
11
76.93824326355977
21
-386.90925322545809
31
0
0
LINE
5
1325
100
AcDbEntity
8
0
100
AcDbLine
10
80.138330014239159
20
-359.10927410299018
30
0
11
80.138330014239159
21
-372.80925440025925
31
0
0
LINE
5
1326
100
AcDbEntity
8
0
100
AcDbLine
10
331.03824280555074
20
-411.50950494417401
30
0
11
318.2382437262853
21
-411.50950494417401
31
0
0
LINE
5
1327
100
AcDbEntity
8
0
100
AcDbLine
10
122.43824326355951
20
-317.20935810861181
30
0
11
122.43824326355951
21
-320.40925322545843
31
0
0
LINE
5
1328
100
AcDbEntity
8
0
100
AcDbLine
10
80.138330014239159
20
-372.80925440025925
30
0
11
76.93824326355977
21
-372.80925574297129
31
0
0
LINE
5
1329
100
AcDbEntity
8
0
100
AcDbLine
10
76.938330014239142
20
-331.30925322545829
30
0
11
80.138330014239159
21
-331.30925322545829
31
0
0
LINE
5
1330
100
AcDbEntity
8
0
100
AcDbLine
10
76.93824326355977
20
-345.00934386262077
30
0
11
76.938270049577284
21
-359.1092532254583
31
0
0
LINE
5
1331
100
AcDbEntity
8
0
100
AcDbLine
10
383.03824326355902
20
-414.7095049383563
30
0
11
383.03810013227678
21
-411.50950494417401
31
0
0
LINE
5
1332
100
AcDbEntity
8
0
100
AcDbLine
10
292.23653030189928
20
-414.70950494417394
30
0
11
279.0383428826525
21
-414.70950494417394
31
0
0
LINE
5
1333
100
AcDbEntity
8
0
100
AcDbLine
10
331.03824326355925
20
-414.70950373961415
30
0
11
331.03824280555074
21
-411.50950494417401
31
0
0
LINE
5
1334
100
AcDbEntity
8
0
100
AcDbLine
10
383.03810013227678
20
-411.50950494417401
30
0
11
370.2382259313938
21
-411.50950494417401
31
0
0
LINE
5
1335
100
AcDbEntity
8
0
100
AcDbLine
10
598.33824314572064
20
-372.81453232078218
30
0
11
595.13824314572071
21
-372.81452694379777
31
0
0
LINE
5
1336
100
AcDbEntity
8
0
100
AcDbLine
10
598.33824314571893
20
-317.21477423895271
30
0
11
573.88824314572059
21
-317.21607267973098
31
0
0
LINE
5
1337
100
AcDbEntity
8
0
100
AcDbLine
10
500.83906856773854
20
-320.41452223895277
30
0
11
500.83824314572092
21
-317.21452225339158
31
0
0
LINE
5
1338
100
AcDbEntity
8
0
100
AcDbLine
10
383.03810013227644
20
-320.40925322724399
30
0
11
370.23822593139363
21
-320.40925322724399
31
0
0
LINE
5
1339
100
AcDbEntity
8
0
100
AcDbLine
10
318.23824372628519
20
-320.40925322724399
30
0
11
318.23824326355913
21
-317.20925443394424
31
0
0
LINE
5
1340
100
AcDbEntity
8
0
100
AcDbLine
10
318.23824326355913
20
-317.20925443394424
30
0
11
305.03825800971561
21
-317.20925322724395
31
0
0
LINE
5
1341
100
AcDbEntity
8
0
100
AcDbLine
10
383.03824326355868
20
-317.20925323306176
30
0
11
383.03810013227644
21
-320.40925322724399
31
0
0
LINE
5
1342
100
AcDbEntity
8
0
100
AcDbLine
10
598.33821634544097
20
-359.11452223895265
30
0
11
598.33824314572064
21
-345.01461291632614
31
0
0
LINE
5
1343
100
AcDbEntity
8
0
100
AcDbLine
10
526.83774814507206
20
-317.21452223895278
30
0
11
513.63824314572093
21
-317.21564878702685
31
0
0
LINE
5
1344
100
AcDbEntity
8
0
100
AcDbLine
10
539.63824314572093
20
-317.21585235984668
30
0
11
539.63824314572093
21
-320.41452223895277
31
0
0
LINE
5
1345
100
AcDbEntity
8
0
100
AcDbLine
10
357.03820683761114
20
-411.50950494417401
30
0
11
344.23824037762876
21
-411.50950494417401
31
0
0
LINE
5
1346
100
AcDbEntity
8
0
100
AcDbLine
10
279.0383428826525
20
-414.70950494417394
30
0
11
279.03826258818009
21
-411.50950494417401
31
0
0
LINE
5
1347
100
AcDbEntity
8
0
100
AcDbLine
10
279.03826258818009
20
-411.50950494417401
30
0
11
266.23824326355941
21
-411.50950494417401
31
0
0
LINE
5
1348
100
AcDbEntity
8
0
100
AcDbLine
10
318.2382437262853
20
-411.50950494417401
30
0
11
318.2382432635593
21
-414.70950373747382
31
0
0
LINE
5
1349
100
AcDbEntity
8
0
100
AcDbLine
10
598.33824314572064
20
-345.01461291632614
30
0
11
595.13824314572071
21
-345.01456455463705
31
0
0
LINE
5
1350
100
AcDbEntity
8
0
100
AcDbLine
10
595.13824314572071
20
-372.81452694379777
30
0
11
595.13824314572071
21
-359.11454312981596
31
0
0
LINE
5
1351
100
AcDbEntity
8
0
100
AcDbLine
10
573.88824314572059
20
-320.41452223895277
30
0
11
552.83824314572075
21
-320.41452223895277
31
0
0
LINE
5
1352
100
AcDbEntity
8
0
100
AcDbLine
10
595.13824314572071
20
-359.11454312981596
30
0
11
598.33821634544097
21
-359.11452223895265
31
0
0
LINE
5
1353
100
AcDbEntity
8
0
100
AcDbLine
10
573.88824314572059
20
-317.21607267973098
30
0
11
573.88824314572059
21
-320.41452223895277
31
0
0
LINE
5
1354
100
AcDbEntity
8
0
100
AcDbLine
10
595.13824314572071
20
-345.01456455463705
30
0
11
595.13824314572071
21
-331.31460574723656
31
0
0
LINE
5
1355
100
AcDbEntity
8
0
100
AcDbLine
10
598.33815636939244
20
-331.31452223895275
30
0
11
598.33824314571893
21
-317.21477423895271
31
0
0
LINE
5
1356
100
AcDbEntity
8
0
100
AcDbLine
10
539.63824314572093
20
-320.41452223895277
30
0
11
526.83808256352813
21
-320.41452223895277
31
0
0
LINE
5
1357
100
AcDbEntity
8
0
100
AcDbLine
10
135.63771357631819
20
-317.20925322545838
30
0
11
122.43824326355951
21
-317.20935810861181
31
0
0
LINE
5
1358
100
AcDbEntity
8
0
100
AcDbLine
10
148.4377388083129
20
-320.40925322545837
30
0
11
135.63812852093409
21
-320.40925322545837
31
0
0
LINE
5
1359
100
AcDbEntity
8
0
100
AcDbLine
10
135.63812852093409
20
-320.40925322545837
30
0
11
135.63771357631819
21
-317.20925322545838
31
0
0
LINE
5
1360
100
AcDbEntity
8
0
100
AcDbLine
10
174.43824326355923
20
-317.20925323966401
30
0
11
174.43751418331942
21
-320.40925322545826
31
0
0
LINE
5
1361
100
AcDbEntity
8
0
100
AcDbLine
10
148.4382432635596
20
-317.20942649792062
30
0
11
148.4377388083129
21
-320.40925322545837
31
0
0
LINE
5
1362
100
AcDbEntity
8
0
100
AcDbLine
10
161.63805232095001
20
-320.40925322545837
30
0
11
161.63739393271428
21
-317.20925322545838
31
0
0
LINE
5
1363
100
AcDbEntity
8
0
100
AcDbLine
10
80.138243263559758
20
-386.90925322545809
30
0
11
80.138243263559758
21
-400.60925322545825
31
0
0
LINE
5
1364
100
AcDbEntity
8
0
100
AcDbLine
10
76.93824326355977
20
-386.90925322545809
30
0
11
80.138243263559758
21
-386.90925322545809
31
0
0
LINE
5
1365
100
AcDbEntity
8
0
100
AcDbLine
10
80.138330014239159
20
-331.30925322545829
30
0
11
80.138330014239159
21
-345.00929552106749
31
0
0
LINE
5
1366
100
AcDbEntity
8
0
100
AcDbLine
10
76.938270049577284
20
-359.1092532254583
30
0
11
80.138330014239159
21
-359.10927410299018
31
0
0
LINE
5
1367
100
AcDbEntity
8
0
100
AcDbLine
10
80.138330014239159
20
-345.00929552106749
30
0
11
76.93824326355977
21
-345.00934386262077
31
0
0
LINE
5
1368
100
AcDbEntity
8
0
100
AcDbLine
10
174.43751418331959
20
-411.50950494238828
30
0
11
161.63805232095024
21
-411.50950494238828
31
0
0
LINE
5
1369
100
AcDbEntity
8
0
100
AcDbLine
10
148.4382432635596
20
-414.70933166992609
30
0
11
148.4377388083129
21
-411.50950494238828
31
0
0
LINE
5
1370
100
AcDbEntity
8
0
100
AcDbLine
10
174.43751418331942
20
-320.40925322545826
30
0
11
161.63805232095001
21
-320.40925322545837
31
0
0
LINE
5
1371
100
AcDbEntity
8
0
100
AcDbLine
10
161.63739393271428
20
-317.20925322545838
30
0
11
148.4382432635596
21
-317.20942649792062
31
0
0
LINE
5
1372
100
AcDbEntity
8
0
100
AcDbLine
10
266.23824326355918
20
-320.40925322724399
30
0
11
266.23824326355918
21
-317.20925323321114
31
0
0
LINE
5
1373
100
AcDbEntity
8
0
100
AcDbLine
10
266.23824326355941
20
-411.50950494417401
30
0
11
266.23824326355941
21
-414.70950493820709
31
0
0
LINE
5
1374
100
AcDbEntity
8
0
100
AcDbLine
10
174.43824326355937
20
-414.70950492818275
30
0
11
174.43751418331959
21
-411.50950494238828
31
0
0
LINE
5
1375
100
AcDbEntity
8
0
100
AcDbLine
10
122.43824326355951
20
-414.70940005923524
30
0
11
122.43824326355951
21
-411.50950494238856
31
0
0
LINE
5
1376
100
AcDbEntity
8
0
100
AcDbLine
10
135.63812852093409
20
-411.50950494238828
30
0
11
135.63771357631819
21
-414.70950494238832
31
0
0
LINE
5
1377
100
AcDbEntity
8
0
100
AcDbLine
10
161.63805232095024
20
-411.50950494238828
30
0
11
161.63739393271428
21
-414.70950494238832
31
0
0
LINE
5
1378
100
AcDbEntity
8
0
100
AcDbLine
10
161.63739393271428
20
-414.70950494238832
30
0
11
148.4382432635596
21
-414.70933166992609
31
0
0
LINE
5
1379
100
AcDbEntity
8
0
100
AcDbLine
10
135.63771357631819
20
-414.70950494238832
30
0
11
122.43824326355951
21
-414.70940005923524
31
0
0
LINE
5
1380
100
AcDbEntity
8
0
100
AcDbLine
10
148.4377388083129
20
-411.50950494238828
30
0
11
135.63812852093409
21
-411.50950494238828
31
0
0
LINE
5
1381
100
AcDbEntity
8
0
100
AcDbLine
10
174.43824326355923
20
-317.20925323966401
30
0
11
266.23824326355918
21
-317.20925323321114
31
0
0
LINE
5
1382
100
AcDbEntity
8
0
100
AcDbLine
10
174.43824326355937
20
-414.70950492818275
30
0
11
266.23824326355941
21
-414.70950493820709
31
0
0
LINE
5
1383
100
AcDbEntity
8
0
100
AcDbLine
10
122.43824326355951
20
-411.50950494238856
30
0
11
101.38771532594316
21
-411.50950494238856
31
0
0
LINE
5
1384
100
AcDbEntity
8
0
100
AcDbLine
10
101.38771532594322
20
-320.40925322545843
30
0
11
101.38771532594322
21
-317.20925322545844
31
0
0
LINE
5
1385
100
AcDbEntity
8
0
100
AcDbLine
10
76.938243263561958
20
-317.20950522545832
30
0
11
76.938330014239142
21
-331.30925322545829
31
0
0
LINE
5
1386
100
AcDbEntity
8
0
100
AcDbLine
10
331.03824326355914
20
-317.20925443180397
30
0
11
331.03824280555074
21
-320.40925322724399
31
0
0
LINE
5
1387
100
AcDbEntity
8
0
100
AcDbLine
10
357.03824326355908
20
-317.21002300498236
30
0
11
357.03820683761103
21
-320.40925322724399
31
0
0
LINE
5
1388
100
AcDbEntity
8
0
100
AcDbLine
10
331.03824280555074
20
-320.40925322724399
30
0
11
318.23824372628519
21
-320.40925322724399
31
0
0
LINE
5
1389
100
AcDbEntity
8
0
100
AcDbLine
10
357.03820683761103
20
-320.40925322724399
30
0
11
344.23824037762864
21
-320.40925322724399
31
0
0
LINE
5
1390
100
AcDbEntity
8
0
100
AcDbLine
10
370.23814368524279
20
-317.20925322724389
30
0
11
357.03824326355908
21
-317.21002300498236
31
0
0
LINE
5
1391
100
AcDbEntity
8
0
100
AcDbLine
10
292.23653030189899
20
-317.20925322724395
30
0
11
279.03834288265239
21
-317.20925322724395
31
0
0
LINE
5
1392
100
AcDbEntity
8
0
100
AcDbLine
10
279.03834288265239
20
-317.20925322724395
30
0
11
279.03826258817986
21
-320.40925322724399
31
0
0
LINE
5
1393
100
AcDbEntity
8
0
100
AcDbLine
10
279.03826258817986
20
-320.40925322724399
30
0
11
266.23824326355918
21
-320.40925322724399
31
0
0
LINE
5
1394
100
AcDbEntity
8
0
100
AcDbLine
10
383.03824326355868
20
-317.20925323306176
30
0
11
500.83824314572092
21
-317.21452225339158
31
0
0
LINE
5
1395
100
AcDbEntity
8
0
100
AcDbLine
10
598.33824314572109
20
-414.71452223843613
30
0
11
573.88824314572116
21
-414.7132235151048
31
0
0
LINE
5
1396
100
AcDbEntity
8
0
100
AcDbLine
10
573.88824314572116
20
-414.7132235151048
30
0
11
573.88824314572116
21
-411.5147739558829
31
0
0
LINE
5
1397
100
AcDbEntity
8
0
100
AcDbLine
10
539.63824314572105
20
-414.71344383498888
30
0
11
539.63824314572105
21
-411.5147739558829
31
0
0
LINE
5
1398
100
AcDbEntity
8
0
100
AcDbLine
10
500.83906856773876
20
-411.51477395588302
30
0
11
500.83824314572109
21
-414.71477394144415
31
0
0
LINE
5
1399
100
AcDbEntity
8
0
100
AcDbLine
10
526.83774814507251
20
-414.71477395588295
30
0
11
513.63824314572128
21
-414.71364740780871
31
0
0
LINE
5
1400
100
AcDbEntity
8
0
100
AcDbLine
10
573.88824314572116
20
-411.5147739558829
30
0
11
552.83824314572132
21
-411.5147739558829
31
0
0
LINE
5
1401
100
AcDbEntity
8
0
100
AcDbLine
10
552.83824314572132
20
-414.71466905280408
30
0
11
539.63824314572105
21
-414.71344383498888
31
0
0
LINE
5
1402
100
AcDbEntity
8
0
100
AcDbLine
10
513.63795834049495
20
-411.51477395588302
30
0
11
500.83906856773876
21
-411.51477395588302
31
0
0
LINE
5
1403
100
AcDbEntity
8
0
100
AcDbLine
10
513.63824314572128
20
-414.71364740780871
30
0
11
513.63795834049495
21
-411.51477395588302
31
0
0
LINE
5
1404
100
AcDbEntity
8
0
100
AcDbLine
10
526.83808256352813
20
-411.51477395588302
30
0
11
526.83774814507251
21
-414.71477395588295
31
0
0
LINE
5
1405
100
AcDbEntity
8
0
100
AcDbLine
10
539.63824314572105
20
-411.5147739558829
30
0
11
526.83808256352813
21
-411.51477395588302
31
0
0
LINE
5
1406
100
AcDbEntity
8
0
100
AcDbLine
10
552.83824314572132
20
-411.5147739558829
30
0
11
552.83824314572132
21
-414.71466905280408
31
0
0
LINE
5
1407
100
AcDbEntity
8
0
100
AcDbLine
10
598.33824314572109
20
-400.61452223843605
30
0
11
598.33824314572109
21
-414.71452223843613
31
0
0
LINE
5
1408
100
AcDbEntity
8
0
100
AcDbLine
10
595.13824314572116
20
-400.61452223843605
30
0
11
598.33824314572109
21
-400.61452223843605
31
0
0
LINE
5
1409
100
AcDbEntity
8
0
100
AcDbLine
10
595.13824314572093
20
-386.91452223843612
30
0
11
595.13824314572116
21
-400.61452223843605
31
0
0
LINE
5
1410
100
AcDbEntity
8
0
100
AcDbLine
10
598.33824314572087
20
-386.91452223843584
30
0
11
595.13824314572093
21
-386.91452223843612
31
0
0
LINE
5
1411
100
AcDbEntity
8
0
100
AcDbLine
10
598.33824314572087
20
-386.91452223843584
30
0
11
598.33824314572064
21
-372.81453232078218
31
0
0
LINE
5
1412
100
AcDbEntity
8
0
100
AcDbLine
10
595.13824314572071
20
-331.31460574723656
30
0
11
598.33815636939244
21
-331.31452223895275
31
0
0
LINE
5
1413
100
AcDbEntity
8
0
100
AcDbLine
10
552.83824314572075
20
-320.41452223895277
30
0
11
552.83824314572075
21
-317.2146271420317
31
0
0
LINE
5
1414
100
AcDbEntity
8
0
100
AcDbLine
10
526.83808256352813
20
-320.41452223895277
30
0
11
526.83774814507206
21
-317.21452223895278
31
0
0
LINE
5
1415
100
AcDbEntity
8
0
100
AcDbLine
10
101.38771532594316
20
-411.50950494238856
30
0
11
101.38771532594316
21
-414.70950494238849
31
0
0
LINE
5
1416
100
AcDbEntity
8
0
100
AcDbLine
10
101.38771532594316
20
-414.70950494238849
30
0
11
76.938243263559613
21
-414.70925329189822
31
0
0
LINE
5
1417
100
AcDbEntity
8
0
100
AcDbLine
10
76.93824326355977
20
-400.60925322545825
30
0
11
76.93824326355977
21
-414.70925322545827
31
0
0
LINE
5
1418
100
AcDbEntity
8
0
100
AcDbLine
10
80.138243263559758
20
-400.60925322545825
30
0
11
76.93824326355977
21
-400.60925322545825
31
0
0
LINE
5
1419
100
AcDbEntity
8
0
100
AcDbLine
10
513.63795834049472
20
-320.41452223895277
30
0
11
500.83906856773854
21
-320.41452223895277
31
0
0
LINE
5
1420
100
AcDbEntity
8
0
100
AcDbLine
10
552.83824314572075
20
-317.2146271420317
30
0
11
539.63824314572093
21
-317.21585235984668
31
0
0
LINE
5
1421
100
AcDbEntity
8
0
100
AcDbLine
10
513.63824314572093
20
-317.21564878702685
30
0
11
513.63795834049472
21
-320.41452223895277
31
0
0
LINE
5
1422
100
AcDbEntity
8
0
100
AcDbLine
10
122.43824326355951
20
-320.40925322545843
30
0
11
101.38771532594322
21
-320.40925322545843
31
0
0
LINE
5
1423
100
AcDbEntity
8
0
100
AcDbLine
10
101.38771532594322
20
-317.20925322545844
30
0
11
76.938243263561958
21
-317.20950522545832
31
0
0
LINE
5
1424
100
AcDbEntity
8
0
100
AcDbLine
10
383.03824326355902
20
-414.7095049383563
30
0
11
500.83824314572109
21
-414.71477394144415
31
0
0
LINE
5
1425
100
AcDbEntity
8
0
100
AcDbLine
10
344.23824037762864
20
-320.40925322724399
30
0
11
344.23822853309781
21
-317.20925322724389
31
0
0
LINE
5
1426
100
AcDbEntity
8
0
100
AcDbLine
10
292.23810693649318
20
-320.40925322724399
30
0
11
292.23653030189899
21
-317.20925322724395
31
0
0
LINE
5
1427
100
AcDbEntity
8
0
100
AcDbLine
10
370.23822593139363
20
-320.40925322724399
30
0
11
370.23814368524279
21
-317.20925322724389
31
0
0
LINE
5
1428
100
AcDbEntity
8
0
100
AcDbLine
10
305.0382446516216
20
-320.40925322724399
30
0
11
292.23810693649318
21
-320.40925322724399
31
0
0
LINE
5
1429
100
AcDbEntity
8
0
100
AcDbLine
10
344.23822853309781
20
-317.20925322724389
30
0
11
331.03824326355914
21
-317.20925443180397
31
0
0
LINE
5
1430
100
AcDbEntity
8
0
100
AcDbLine
10
305.03825800971561
20
-317.20925322724395
30
0
11
305.0382446516216
21
-320.40925322724399
31
0
0
LINE
5
1431
100
AcDbEntity
8
0
100
AcDbLine
10
344.23822853309798
20
-414.70950494417394
30
0
11
331.03824326355925
21
-414.70950373961415
31
0
0
LINE
5
1432
100
AcDbEntity
8
0
100
AcDbLine
10
370.2382259313938
20
-411.50950494417401
30
0
11
370.2381436852429
21
-414.70950494417394
31
0
0
LINE
5
1433
100
AcDbEntity
8
0
100
AcDbLine
10
305.03825800971578
20
-414.70950494417394
30
0
11
305.03824465162182
21
-411.50950494417401
31
0
0
LINE
5
1434
100
AcDbEntity
8
0
100
AcDbLine
10
292.2381069364933
20
-411.50950494417401
30
0
11
292.23653030189928
21
-414.70950494417394
31
0
0
LINE
5
1435
100
AcDbEntity
8
0
100
AcDbLine
10
344.23824037762876
20
-411.50950494417401
30
0
11
344.23822853309798
21
-414.70950494417394
31
0
0
LINE
5
1436
100
AcDbEntity
8
0
100
AcDbLine
10
318.2382432635593
20
-414.70950373747382
30
0
11
305.03825800971578
21
-414.70950494417394
31
0
0
LINE
5
1437
100
AcDbEntity
8
0
100
AcDbLine
10
357.03824326355908
20
-414.70873516643564
30
0
11
357.03820683761114
21
-411.50950494417401
31
0
0
LINE
5
1438
100
AcDbEntity
8
0
100
AcDbLine
10
305.03824465162182
20
-411.50950494417401
30
0
11
292.2381069364933
21
-411.50950494417401
31
0
0
LINE
5
1439
100
AcDbEntity
8
0
100
AcDbLine
10
370.2381436852429
20
-414.70950494417394
30
0
11
357.03824326355908
21
-414.70873516643564
31
0
0
ENDSEC
0
SECTION
2
OBJECTS
0
DICTIONARY
5
C
100
AcDbDictionary
3
ACAD_GROUP
350
D
3
ACAD_MLINESTYLE
350
17
0
DICTIONARY
5
D
100
AcDbDictionary
0
DICTIONARY
5
1A
330
C
100
AcDbDictionary
0
DICTIONARY
5
17
100
AcDbDictionary
0
ENDSEC
0
EOF
